Morissette Alanis - That I Would Be Good Chords & Tabs

 

That I Would Be Good Chords & Tabs

Morissette Alanis Chords & Tabs

Version: 2 Type: Tab 0 ratings
1 star 2 stars 3 stars 4 stars 5 stars
comments

That I Would Be Good Tab

   
##################################################################################
# This file is the author's own work and represents their interpretation of the  #
# song. You may only use this file for private study, scholarship, or research.  #
##################################################################################

*****************************
* Alanis Morrissette        *
* MTV Unplugged             *
* That I Would Be Good      *
*****************************

Tabbed By Victor Marin



***************************************************************************************
Greetings From Venezuela!!!!

This is my first tab, I hope u like it because it's all my own work, if u have any questions,
corrections or comments plz feel free to email me back.

I love this song, it's a great song and very easy to play, i wonder why isn't it posted
in the archive???

Now let's begin:

Like I said before: This is a very easy song, all chords are played twice: 
the first time u "cut" the sound and then u play the chord again but this 
time u make a hand tap, got it?

***************************************************************************************

Standard tuning

chords used:

Axx222x
A/D     xx022x
Asus2xx22xx
Bm224432
Exx210x


Intro:                                      VERSE 1   

A x A   t   A/D x A/D t   Asus2x Asus2 t   A/D x A/D t
   |---------------------------------------------------------------
   |----2------------2-----2-------------------------2-----2-------
   |----2---2--------2-----2-------2-------2---------2-----2-------
   |----2---2--------0-----0-------2-------2---------0-----0-------
   |---------------------------------------------------------------
   |--------------------------------------------------------------- 
"That i would be Good...




Asus2 x Asus2 t   A/D x A/D t   Bm  x Bm   t   E x E t
   |-------------------------------------------------------------
   |-----------------------2----2----------------------0---0------
   |----2---------2--------2----2--------4-----4~------1---1------
   |----2---------2--------0----0--------4-----4~------2---2------
   |-------------------------------------2-----2~-----------------
   |-------------------------------------------------------------
                  ...  even if i did nothing     That i would be Good...



A x A t   A/D x A/D t   Bm   x Bm   t   E x E t
   |-------------------------------------------------------------
   |----2 --2------2----2----------------------0---0--------------
   |----2- -2------2----2--------4~----4~------1---1--------------
   |----2---2------0----0--------4~----4~------2---2--------------
   |-----------------------------2~----2~-------------------------
   |-------------------------------------------------------------
even if i got the thumbs down....that I would be good 

[ Tab from: http://www.guitartabs.cc/tabs/m/morissette_alanis/that_i_would_be_good_tab_ver_2.html ]
A x A t   A/D x A/D t   Bm  x Bm  t   E x E t
   |-------------------------------------------------------------
   |----2---2------2----2--------3-----3------0---0--------------
   |----2---2------2----2--------4-----4------1---1--------------
   |----2---2------0----0--------4-----4------2---2--------------
   |-------------------------------------------------------------
   |-------------------------------------------------------------
              if I got and stayed sick.....................that I would be good

A x A t   A/D x A/D t     Bm  x Bm  t   E x E t
   |--------------------------------------------0----------------
   |----2---2------2----2-----------3---3-------0----------------
   |----2---2------2----2----------4----4-------1----------------
   |----2---2------0----0---------4-----4-------2----------------
   |-----------------------------2--------------2----------------
   |-------------------------------------------------------------
         if I gained     ten    pounds


VERSE 2: The same Verse 1 with the piano and 2nd guitar


CHORUS: I dont know wich is the chorus here beacuse she
repeat almost the same words in the song


A x A t        A/D x A/D t         Bm  x Bm  t       E x E t
   |-------------------------------------------------------------------
   |----2---2--------2--2----2----------2--3---3------3------0---0-----
   |----2---2------2----2----2--------2----4---4--------4----1---1-----   x 4
   |----2---2----2------0----0------0------4---4---------4---2---2-----
   |-------------------------------------------------2-----------------
   |-------------------------------------------------------------------


LAST VERSE
                                                 
                                                     ...that i would be good

A x A t   A/D x A/D t   Bm   x Bm   t   E x E t
   |-------------------------------------------------------------
   |----2 --2------2----2-----------------------0---0-------------
   |----2- -2------2----2--------4~----4~-------1---1-------------
   |----2---2------0----0--------4~----4~-------2---2-------------
   |-----------------------------2~----2~------------------------
   |-------------------------------------------------------------

              even if i lost sanity.....................that i would be good   

A x A t   A/D x A/D t       Bm   x Bm   t   E x E t
   |--------------------------------------------------------0---------
   |----2 --2------2----2---------------------------0---0-----0-------
   |----2- -2------2----2-----------4~-----4~-------1---1-------1-----
   |----2---2------0----0-----------4~-----4~-------2---2---------2---
   |--------------------------------2~-----2~-------------------------
   |------------------------------------------------------------------

             whether with or without you 



Outpro: Just like the Chorus, then the intro part and then finish wit the 
A and Asus2 chords again and again

*************************************************************************************
I Think this is it, i know it's not perfect but it sounds very good in an acoustic 
guitar with nylon string.


Thankx to all, and remember, if u find an error or if u want the tab for the 2nd guitar
plz email me back


c'ya
Comments