Morissette Alanis - Surrendering Solo Chords & Tabs

 

Surrendering Solo Chords & Tabs

Morissette Alanis Chords & Tabs

Version: 1 Type: Tab 0 ratings
1 star 2 stars 3 stars 4 stars 5 stars
comments

Surrendering Solo Tab

   
##################################################################################
# This file is the author's own work and represents their interpretation of the  #
# song. You may only use this file for private study, scholarship, or research.  #
##################################################################################

surrendering

by Alanis Morissette
from new album 'under rug swept'

transcribed by Christian Reindel (creindel@gmx.de)
any questions or corrections- e-mail me

   Main riff 
(it's not excact the same but something in the way-
 better transcriptions are welcome) 
E:|-----------------------------------|
B:|--10--10--10--8-8--7-7--10-7-8-7---|
G:|---7---7---7--7-7--7-7---7-7-7-7---|
D:|---0---0---0--0-0--0-0---0-0-0-0---|
A:|-----------------------------------|
E:|-----------------------------------|

chords for chorus and interlude
      G    A    C    Bm   D    Dsus4
E:|---3---------0----2----2----3----|
B:|---3----2----1----3----3----3----|
G:|---0----2----0----4----2----2----|
D:|---0----2----2----4----0----0----|

Verse 1 with main riff

Chorus 1

back to main riff with guitar lead 1

E:|-10-10-10--10~~--10-10--10-10--------|
B:|-10-10-10--10~~--10-10--10-10--------|
G:|--7--7--7---7~~---7--7---7--7--------|
D:|--0--0--0---------0--0---0--0--------|
A:|-------------------------------------|
E:|-------------------------------------|


Verse 2 

back to main riff with guitar lead 2
[ Tab from: http://www.guitartabs.cc/tabs/m/morissette_alanis/surrendering_solo_tab.html ]
E:|--10^7--5^7--3^5--2^3--2-3-2-3--2-3-3\5---|
B:|------------------------------------------|
G:|------------------------------------------|
D:|------------------------------------------|
A:|------------------------------------------|
E:|------------------------------------------|


Verse 3 

Chorus 3


Interlude
    C                   Bm
self protection was in times of true danger
    C                  Bm
your best defense to mistrust and be wary
    C                   Bm  
surrendering a feat to unequalled measure
 D                 Dsus4
and I'm thrilled to let you in 
 D                Dsus4
overjoyed to be let in in kind


Chorus 4

Outro with main riff

lead guitar - play around this 

E:|--10^7--5^7--3^5--2^3--2-3-2-3--2-3-3\5---|
B:|------------------------------------------|
G:|------------------------------------------|
D:|------------------------------------------|
A:|------------------------------------------|
E:|------------------------------------------|

E:|--10^7--5^7--3^5--2^3--2^3^2--5-3-2-------|
B:|------------------------------------------|
G:|------------------------------------------|
D:|------------------------------------------|
A:|------------------------------------------|
E:|------------------------------------------|

E:|--10^7--5^7--3^5--2^3--2-3-2-3--2-3-3\5---|
B:|------------------------------------------|
G:|------------------------------------------|
D:|------------------------------------------|
A:|------------------------------------------|
E:|------------------------------------------|

E:|--10^7--5^7--3^5--2^3--2-2^5-5--3^2-2-----|
B:|------------------------------------------|
G:|------------------------------------------|
D:|------------------------------------------|
A:|------------------------------------------|
E:|------------------------------------------|

end.





Comments