Morissette Alanis - Not The Doctor Intro Chords & Tabs

 

Not The Doctor Intro Chords & Tabs

Morissette Alanis Chords & Tabs

Version: 1 Type: Chords 0 ratings
1 star 2 stars 3 stars 4 stars 5 stars
comments

Not The Doctor Intro Chords

   
#----------------------------------PLEASE NOTE---------------------------------#
#This file is the author's own work and represents their interpretation of the #
#song. You may only use this file for private study, scholarship, or research. #
#------------------------------------------------------------------------------#

From: 75224.1545@compuserve.com
Date: Sat, 10 Feb 1996 17:30:51 -0500


Title: "NOT THE DOCTOR" - Alanis Morissette - album "jagged little pill"

Intro: There are a couple variations sort of like this throughout.

Bass-like, all fingered, as in:
e---------------------------------------------
B---------------------------------------------
G---------------------------------------------
D---------------------------------------------
A------0-0-2-0---0--------0-0-2-0-------------
E--0-4---------4---4--0-4---------4-0---------

Or, one octave up, played from E and Esus4 chords:
e---------------------------------------------
B----------0------------------0---------------
G----1-2-2---2-1-2-1----1-2-2---2-1-----------
D--2------------------2-------------2---------
A---------------------------------------------
E---------------------------------------------


(Repeat chorus - then end on a slow, upstroked E chord)


Suggested chords:

    E   G   A  F#m  Am7  D  Esus4
e-------3-------2--------2--------------------
B-----------2---2----1---3--------------------
G---1-------2---2--------2----2---------------
D---2-------2---4----2--------2---------------
A---2---2-------x--------x----2---------------
E-------3---x---x----x---x--------------------

btw, high "e" string is pretty sparsely used in strumming.

Enjoy!
------------------------------------------------------
George Quebbeman
Brighton, MI, USA
email: 75224.1545@compuserve.com
"Compound interest is the eighth wonder of the world."
                                    -J.P.Morgan
------------------------------------------------------


From: Marco.Hoppenbrouwers@2488PAS.urlnl.sprint.com
Date: Fri, 5 Jan 1996 03:07:00 -0500
Subject: TAB: Perfect by Alanis Morissette
[ Tab from: http://www.guitartabs.cc/tabs/m/morissette_alanis/not_the_doctor_intro_crd.html ]
     Date: 05-01-96
     
     Perfect
     Recorded by Alanis Morissette
     Composed by Alanis Morissette and Glen Ballard
     Lyrics by  Alanis Morissette
     From the album "Jagged little pill"
     Transcribed by HOPPA (Marco Hoppenbrouwers).
     
     Cords:
     
     verse:
          | Esus4  E | Esus4  E | F#m/E    | F#m/E    |
          | Esus4  E | Esus4  E | F#m/E    | F#m/E    |
     chorus:
          | G#m      | F#m      | G#m      | A        |
          | A        |
          
          | E        | E        | E        | E        |
          | E        | E        | E        | E        |
     
     repeat the above once
     
     verse:
          | Esus4  E | Esus4  E | F#m/E    | F#m/E    |
          | Esus4  E | Esus4  E | F#m/E    | F#m/E    |
     
     Bridge:     
          | G        | G        | A        | A        |
          | G        | G        | Bsus4    | Bsus4    |
          
          | E        | E        | E        | E        |
          | E        | E        | E        | E        |
          
     A          567755
     Bsus4      x13341
     Esus4      022200
     E          022100
     F#m        133111
     F#m/e      044200    (I'm not quite sure about the chord name
                           but it sounds OK. Can somebody tell me 
                           what it is)
     G          345533
     G#m        466444
                     

######################################################################
     
     Enjoy
     
     Marco Hoppenbrouwers
     marco.hoppenbrouwers@2488pas.urlnl.sprint.com
     
#######################################################################


So unsexy

by Alanis Morissette
from new album 'under rug swept'

transcribed by Christian Reindel (creindel@gmx.de)
any questions or corrections- e-mail me

Normal tuning

Main riff - play this the whole song except the little interlude part

E:|-------------------------------------------------|
B:|-------------------------------------------------|
G:|-13-13-13-X--11--11--11-11--9--9-9--8--8-8--9-9--|
D:|-9--9--9--X--9---9---9--9---9--9-9--9--9-9--9-9--|
A:|-7--7--7--X--7---7---7--7---7--7-7--7--7-7--7-7--|
E:|-------------------------------------------------|

 better to play with capo on 7.fret
 
  capo 7.fret
E:|---I-------------------------------------------|
B:|---I-------------------------------------------|
G:|---I-6--6-6-X--4--4--4-4--2--2-2--1--1-1--2-2--|
D:|---I-2--2-2-X--2--2--2-2--2--2-2--2--2-2--2-2--|
A:|---I-0--0-0-X--0--0--0-0--0--0-0--0--0-0--0-0--|
E:|---I-------------------------------------------|


Interlude

      when will I stop leaving baby?
      when will I stop deserting baby?
      when will I start staying with myself?

   capo 7.fret
        C               D
E:|---I-1---------------3------------------|
B:|---I-1---------------3------------------|
G:|---I-2---------------0------------------|
D:|---I-3----------------------------------|
A:|---I------------------------------------|
E:|---I------------------------------------|

 back to main riff   


Outro

Lead guitar - play around this - make improvisations

E:|---12--12-----------------------------------|
B:|----------12--12-12----9-10--9--7---9/12----|
G:|--------------------------------------------|
D:|--------------------------------------------|
A:|--------------------------------------------|
E:|--------------------------------------------|

 
end.


ARTIST= Alanis Morissette
SONG = Surrendering
ALBUM = Under rug swept
WRITTEN BY = Alanis Morissette
RECORDING LABEL = Maverick recording studios

E|----------------------------------------------------------------
B|----3-3--3---3---3-3---3----3-3--3--3---------------------------
G|----0h2--2---0---0h2---2----2h4--2--0------0h2------------------
D|----------------------------------------4-----------------------
A|----------------------------------------------------------------
E|----------------------------------------------------------------
Repeat three times and on 4th time play below



E|----------------------------------------------------------------
B|----3-3--3---3---3-3---3----3-3--3--3---------------------------
G|----0h2--2---0---0h2---2----2h4--2--0---------------------------
D|----------------------------------------4-----2-----0-----------
A|----------------------------------------------------------------
E|----------------------------------------------------------------
This repeats through out the song it doesnt change very much, but this is just the basic riff
Only the chorus is different

Comments