Morissette Alanis - Joining You Unplugged Chords & Tabs

 

Joining You Unplugged Chords & Tabs

Morissette Alanis Chords & Tabs

Version: 1 Type: Tab 0 ratings
1 star 2 stars 3 stars 4 stars 5 stars
comments

Joining You Unplugged Tab

Artist: Alanis Morissette
Album: MTV Unplugged (Track 2)
Song: Joining You



CAPO 3

[ Tab from: http://www.guitartabs.cc/tabs/m/morissette_alanis/joining_you_unplugged_tab.html ]
Verse
-------------------------------------0-----------
-------0---0--1-------------0-----0--------0-----
---------2-------2-------2-----2--------2--------
----2--------------2-----------------------------
-0-----------------------------------------------
-----------------------1-------------------------
repeat until: (below)
                                                  
                                                    
"saying you were talking crazy,""connection..youth"
"middle...delusion" etc. (then you can figure out 
where it comes in again)
--------------------------------------------------  -0-
----------------0---------------------------------  -1-
-------2-----2--------1-----------1-----1~2----1--  -2- 
Comments