Morissette Alanis - Ironic Chords & Tabs

 

Ironic Chords & Tabs

Morissette Alanis Chords & Tabs

Version: 1 Type: Tab 0 ratings
1 star 2 stars 3 stars 4 stars 5 stars
comments

Ironic Tab

#----------------------------------PLEASE NOTE---------------------------------#
#This file is the author's own work and represents their interpretation of the #
#song. You may only use this file for private study, scholarship, or research. #
#------------------------------------------------------------------------------##

                                     IRONIC
                        As recorded by Alanis Morissette
                    (From the 1995 Album JAGGED LITTLE PILL)

Words and Music by Alanis Morissette & Glen Ballard
Transcribed by Michael "Rattlesnake" Tee www.geocities.com/michaelbydemand

 Intro
  Q=85
 4/4
  Gtr I
|---------|-3-3----3---3-|-5-5----5---5-|
|---------|-0-0-0--0---0-|-0-0-0--0---0-|
|---------|-0-0-0--0---0-|-0-0-0--0-0-0-|
|---------|-----2--2-2---|---4-4----4---|
|---------|-3------3-3---|-5--------5---|
|---------|--------------|--------------|


                                         1st Verse
|-3-3-3--3-3-----|-3---2---------------||--------------|--------------|
|-0-0-0--0-0---0-|-------3-------------||-3---3-(3)----|-3------------|
|-0-0-0--0-0---0-|-------0-(0)-0-(0)---||-2---2-(2)----|-2---0-(0)----|
|-----2--2-------|---0-----------------||-0---0-(0)----|-0---0-(0)----|
|-3----------3---|-3---3-3-(3)-------0-||--------------|--------------|
|----------------|---------------------||-2---3-(3)----|-2---0-(0)----|


|------------------|------------------|--------------|--------------|
|-3-3-(3)-3-(3)----|-3-3-(3)----------|-3---3-(3)----|-3------------|
|-2-2-(2)-2-(2)----|-2-------0-(0)----|-2---2-(2)----|-2---0-(0)----|
|-0-------0-(0)----|-0-------0-(0)----|-0---0-(0)----|-0---0-(0)----|
|------------------|------------------|--------------|--------------|
|-2-------3-(3)----|-2-------0-(0)----|-2---3-(3)----|-2---0-(0)----|


                             Q=82       Q=85
|------------------|------------------|---------------|--------------------||
|-3-3-(3)-3-(3)----|-3-3-(3)----------|-3-3-3----3----|-3-3-(3)------------||
|-2-2-(2)-2-(2)----|-2-------0-(0)----|-2---2--2------|-2-------0-(0)------||
|-0-------0-(0)----|-0-------0-(0)----|-0---0------0--|-0-------0-(0)------||
|------------------|------------------|---------------|--------------------||
|-2-------3-(3)----|-2-------0-(0)----|-2---3---------|-0-------0-(0)------||
|
| Gtr II
|------------------|------------------|---------------|--------------------||
|------------------|------------------|---------------|------------------2-||
|------------------|------------------|---------------|------------------3-||
|------------------|------------------|---------------|--------------------||
|------------------|------------------|---------------|--------------------||
|------------------|------------------|---------------|--------------------||


 Chorus
  $
  Gtr II
|-2-2-2---2-(2)-2-2-(2)-2-2---|-2-2-2---2-(2)-2-2-(2)-2-2---|
|-2-2-2---4-(4)-4-4-(4)-4-4---|-2-2-2---4-(4)-4-4-(4)-4-4---|
|---------4-(4)-4-4-(4)-4-4---|---------4-(4)-4-4-(4)-4-4---|
|-4-4-4---4-(4)-4-4-(4)-4-4---|-4-4-4---1-(1)-1-1-(1)-1-1---|
|-4-4-4---2-(2)-2-2-(2)-2-2---|-4-4-4-----------------------|
|-2-2-2-----------------------|-2-2-2---4-(4)-4-4-(4)-4-4---|
|
|   Gtr IV
|-----------------------------|-----------------------------|
|-2-----4-4-(4)-------------2-|-2-----4-4-(4)-------------2-|
|-3-----4-4-(4)-------------3-|-3-----4-4-(4)-------------3-|
|-----------------------------|-----------------------------|
|-------2-2-(2)---------------|-----------------------------|
|-2---4-6---------------------|-2-----4-4-(4)---------------|


|-2-2-2---2-(2)-2-2-(2)-2-2----|
|-2-2-2---4-(4)-4-4-(4)-4-4----|
|---------4-(4)-4-4-(4)-4-4----|
|-4-4-4---4-(4)-4-4-(4)-4-4----|
|-4-4-4---2-(2)-2-2-(2)-2-2----|
|-2-2-2------------------------|
|
|------------------------------|
|-2-----4-4-(4)-------------2--|
|-3-----4-4-(4)-------------3--|
|------------------------------|
|-------2-2-(2)----------------|
|-2---4-6----------------------|


|-2-2-2---2-(2)-2-2-(2)-2-2---|-2-2-2---2-(2)-2-2-(2)-2-2---|
|-2-2-2---4-(4)-4-4-(4)-4-4---|-2-2-2---4-(4)-4-4-(4)-4-4---|
|---------4-(4)-4-4-(4)-4-4---|---------4-(4)-4-4-(4)-4-4---|
|-4-4-4---1-(1)-1-1-(1)-1-1---|-4-4-4---4-(4)-4-4-(4)-4-4---|
|-4-4-4-----------------------|-4-4-4---2-(2)-2-2-(2)-2-2---|
|-2-2-2---4-(4)-4-4-(4)-4-4---|-2-2-2-----------------------|
|
|-----------------------------|-----------------------------|
|-2-----4-4-(4)-------------2-|-2-----4-4-(4)-------------2-|
|-3-----4-4-(4)-------------3-|-3-----4-4-(4)-------------3-|
|-----------------------------|-----------------------------|
|-----------------------------|-------2-2-(2)---------------|
|-2-----4-4-(4)---------------|-2---4-6---------------------|


|-2-2-2---2-(2)-2-2-(2)-2-2----|
|-2-2-2---4-(4)-4-4-(4)-4-4----|
|---------4-(4)-4-4-(4)-4-4----|
|-4-4-4---1-(1)-1-1-(1)-1-1----|
|-4-4-4------------------------|
|-2-2-2---4-(4)-4-4-(4)-4-4----|
|
|------------------------------|
|-2-----4-4-(4)-------------5--|
|-3-----4-4-(4)-------------6--|
|------------------------------|
|------------------------------|
|-2-----4-4-(4)----------------|


                                             To Coda
|-0-0-0-----------------------|-2-2-2---2-(2)-2-2-2-2-||
|-2-2-2---5-(5)-5-5-(5)-5-5---|-2-2-2---2-(2)-2-2-2-2-||
|-2-2-2---4-(4)-4-4-(4)-4-4---|-----------------------||
|-2-2-2---2-(2)-2-2-(2)-2-2---|-4-4-4---4-(4)-4-4-4-4-||
|-0-0-0---2-(2)-2-2-(2)-2-2---|-4-4-4---4-(4)-4-4-4-4-||
|---------0-(0)-0-0-(0)-0-0---|-2-2-2---2-(2)-2-2-2-2-||
|
|-----------------------------|-----------------------||
|-5-----5-5-(5)---------------|-2-----2-2-(2)---------||
|-6-------------------------6-|-3-----3-3-(3)---------||
|-------6-6-(6)-------------8-|-----------------------||
|-0---------------------------|-----------------------||
|-5-----0-0-(0)---------------|-2-----2-2-(2)---------||
|
| Gtr III
|-----------------------------|-----------------------||
|-----------------------------|-----------------------||
|-----------------------------|-----------------------||
|-----------------------------|-----------------------||
|-----------------------------|-----------------------||
|-----------------------------|-----------------------||


 2nd Verse
  Gtr I
|----------------------------------|
|--3---3-3-3--(3)-3-3---(3)-3-3----|
|--2---2-2-2--(2)-2-2---(2)-2-2----|
|--0---0-0-0--(0)-0-0---(0)-0-0----|
|----------------------------------|
|--2---2-2-3--(3)-3-3---(3)-3-3----|
|
| Gtr II
|----------------------------------|
|-(2)---------------2h4-(4)---2----|
|-(3)---------------------------4--|
|----------------------------------|
|----------------------------------|
|-(2)------------------------------|
|
|------2---------------------------|
|--2-------4-----------------------|
|----------------------------------|
|----------------------------------|
|----------------------------------|
|----------------------------------|


|-------------------------|----------------------------|
|-3--3--3-----------------|-3---3-3-3--(3)-3-3-(3)-3-3-|
|-2--2--2---0-(0)-0-0-0-0-|-2---2-2-2--(2)-2-2-(2)-2-2-|
|-0--0--0---0-(0)-0-0-0-0-|-0---0---0--(0)-0-0-(0)-0-0-|
|-------------------------|----------------------------|
|-2--2--2---0-(0)-0-0-0-0-|-2---2---3--(3)-3-3-(3)-----|
|
|-------------------------|----------------------------|
|-2--4-(4)----------------|----------------------------|
|-----------1-(1)---------|----------------------------|
|-------------------------|-6--------------------------|
|-------------------------|----------------------------|
|-------------------------|----------------------------|
|
|-------------------------|-----2----------------------|
|-2--4-(4)----------------|-2-------4------------------|
|-----------1--1----------|----------------------------|
|-------------------------|----------------------------|
|-------------------------|----------------------------|
|-------------------------|----------------------------|


|--------------------------------|
|-3--3-3-3--(3)------------------|
|-2--2-2--------0-0----0--0------|
|-0--0-0--------0-0----0--0------|
|--------------------------------|
|-2--2-2--------0-0----0--0------|
|
|--------------------------------|
|-----------------2h4-(4)---2----|
|-----------------------------4--|
|--------------------------------|
|--------------------------------|
|--------------------------------|
|
|--------------------------------|
|-2--4---------------------------|
|--------4-----------------------|
|--------------------------------|
|--------------------------------|
|--------------------------------|


|-----------------------------|
|-3--3--3--3--(3)-3-3-(3)-3-3-|
|-2--2--2--2--(2)-2-2-(2)-2-2-|
|-0--0--0--0--(0)-0-0-(0)-0-0-|
|-----------------------------|
|-2--2--2--3--(3)-3-3-(3)-----|
|
|-----------------------------|
|-2--2-(2)-4--(4)-------------|
|-----------------------------|
|-----------------------------|
|-----------------------------|
|-----------------------------|
|
|----2------------------------|
|-2--------4------------------|
|-----------------------------|
|-----------------------------|
|-----------------------------|
|-----------------------------|


|----------------------------------|---------------------------|
|--3----3-3------------------------|-3--3-3-3--(3)-3-3-(3)-3-3-|
|--2----2-2-0--(0)-0-0----0--0-----|-2--2-2-2--(2)-2-2-(2)-2-2-|
|--0----0-0-0--(0)-0-0----0--0-----|-0--0---0--(0)-0-0-(0)-0-0-|
|----------------------------------|---------------------------|
|--2----2-2-0--(0)-0-0----0--0-----|-2--2---3--(3)-3-3-(3)-3-3-|
|
|--------------------2h4-(4)---2---|-2-------------------------|
|-(4)----------------------------4-|---------------------------|
|----------------------------------|---------------------------|
|----------------------------------|---------------------------|
|----------------------------------|---------------------------|
|----------------------------------|---------------------------|
|
|----------------------------------|----2----------------------|
|--2----4--------------------------|-2------4------------------|
|-----------4----------------------|---------------------------|
|----------------------------------|---------------------------|
|----------------------------------|---------------------------|
|----------------------------------|---------------------------|


|--------------------------|-----------------------------|
|--3----3-3----------------|-3--3-3-3--(3)-3-3-----3-----|
|--2----2---0--(0)-0-0-0-0-|-2--2---2--(2)-2-2---2-------|
|--0----0---0--(0)-0-0-0-0-|-0--0---0--(0)-0-0-------0---|
|--------------------------|-----------------------------|
|--2----2---0--(0)-0-0-0-0-|-2--2---3--(3)-3-3-----------|
|
|-(2)----------------------|---------------------9-----7-|
|--------------------------|-----------------7S9---9S7---|
|--------------------------|-----------------------------|
|--------------------------|-----------------------------|
|--------------------------|-----------------------------|
|--------------------------|-----------------------------|
|
|--------------------------|----2------------------------|
|--2----4------------------|-2------4--------------------|
|-----------4--------------|-----------------------------|
|--------------------------|-----------------------------|
|--------------------------|-----------------------------|
|--------------------------|-----------------------------|

[ Tab from: http://www.guitartabs.cc/tabs/m/morissette_alanis/ironic_tab.html ]
               D.S. al Coda
|-----------------------------||
|-3--3-3----------------------||
|-2--2---0--(0)-0-0-0-0-------||
|-0--0---0--(0)-0-0-0-0-------||
|-----------------------------||
|-2--2---0--(0)-0-0-0-0-------||
|
|-----------------------------||
|-7---------------------------||
|------------------------6----||
|------------------------8----||
|-----------------------------||
|-----------------------------||
|
|-----------------------------||
|-2--4------------------------||
|--------4--------------------||
|-----------------------------||
|-----------------------------||
|-----------------------------||


 Bridge
  &
  Gtr I
|-3-3----3---3--|-5-5----5---5--|-3-3----3-----3-------|-5---5--------5---5--|
|-0-0-0--0---0--|-0-0-0--0---0--|-0-0-0--0-----0-------|-0---0-----0--0---0--|
|-0-0-0--0---0--|-0-0-0--0-0-0--|-0-0-0--0-----0-------|-0---0-----0--0-0-0--|
|-----2--2-2----|---4-4----4----|-----2--2---2---------|-----4-----4----4----|
|-3------3-3----|-5--------5----|-3------3---3---------|-5--------------5----|
|---------------|---------------|----------------------|---------------------|
|
| Gtr II
|---------------|---------------|--------2h4-----(4)p2-|---------------------|
|---------------|---------------|----------------------|-2h4---(4)-----------|
|---------------|---------------|----------------------|---------------------|
|---------------|---------------|----------------------|---------------------|
|---------------|---------------|----------------------|---------------------|
|---------------|---------------|----------------------|---------------------|


|-3-3----3-----3-----|-5-5----5---5--|-3-3----3---3--|-3-2-----------||
|-0-0-0--0-----0-----|-0-0-0--0---0--|-0-0-0--0---0--|-----3---------||
|-0-0-0--0-----0-----|-0-0-0--0-0-0--|-0-0-0--0---0--|--------0--(0)-||
|-----2--2---2-------|---4-4----4----|-----2--2-2----|---------------||
|-3------3---3-------|-5--------5----|-3------3-3----|---------------||
|--------------------|---------------|---------------|---------------||
|
|                                                      ~~~~~~~~~~~~~~
|------------9-----7-|---------------|---------------|-7-6-----------||
|--------7S9---9S7---|-7-------------|---------------|-----7---------||
|--------------------|---------------|---------------|--------4--(4)-||
|--------------------|---------------|---------------|---------------||
|--------------------|---------------|---------------|---------------||
|--------------------|---------------|---------------|---------------||


 3rd Verse
  Gtr I
|-------------------------|---------------------|-------------------------|
|-3-3-3-3-(3)-3-3-(3)-3-3-|-3-3-3---------------|-3-3-3-3-(3)-3-3-(3)-3-3-|
|-2-2-2-2-(2)-2-2-(2)-2-2-|-2-2-2-0-(0)-0-0-0-0-|-2-2-2-2-(2)-2-2-(2)-2-2-|
|-0-0-0-0-(0)-0-0-(0)-0-0-|-0-0-0-0-(0)-0-0-0-0-|-0-0---0-(0)-0-0-(0)-0-0-|
|-------------------------|---------------------|-------------------------|
|-2-2-2-3-(3)-3-3-(3)-----|-2-2-2-0-(0)-0-0-0-0-|-2-2---3-(3)-3-3-(3)-3-3-|
|
| Gtr II
| >
|-------------------------|---------------------|-------------------------|
|-------------------------|---------------------|-------------------------|
|-6-----------------------|---------------------|-------------------------|
|-------------------------|---------------------|-------------------------|
|-------------------------|---------------------|-------------------------|
|-------------------------|---------------------|-------------------------|


|---------------------|-----------------------|---------------------|
|-3-3-3---------------|-3-3-3-3-(3)-3-3-3-3-3-|-3-3-3---------------|
|-2-2---0-(0)-0-0-0-0-|-2-2-2-2-(2)-2-2-2-2-2-|-2-2-2-0-(0)-0-0-0-0-|
|-0-0---0-(0)-0-0-0-0-|-0-0-0-0-(0)-0-0-0-0-0-|-0-0-0-0-(0)-0-0-0-0-|
|---------------------|-----------------------|---------------------|
|-2-2---0-(0)-0-0-0-0-|-2-2-2-3-(3)-3-3-3-3-3-|-2-2-2-0-(0)-0-0-0-0-|


                                          2/4
|-----------------------|----------------|--------|
|-3-3-3-3-(3)-3-3---3---|-3-3-3----------|--------|
|-2-2---2-(2)-2-2-2-----|-2-2---0-(0)----|-(0)----|
|-0-0---0-(0)-0-0-----0-|-0-0---0-(0)----|-(0)----|
|-----------------------|----------------|--------|
|-2-2---3-(3)-3-3-------|-2-2---0-(0)----|-(0)----|


 4/4
|------------------------------|------------------------------|
|-------3-(3)-----------3-(3)--|-------3-(3)-----------3-(3)--|
|-----2-------0------0---------|-----2-------2------0---------|
|---0-------------0------------|---0-------------2------------|
|------------------------------|------------------------------|
|-2-------------3--------------|-2-------------0--------------|
|
| Gtr V
|------------------------------|------------------------------|
|-3-------------3---(3)--------|-3---3---(3)------------------|
|-2-------------2---(2)--------|-2-------------0---(0)--------|
|-0-------------0---(0)--------|-0-------------0---(0)--------|
|------------------------------|------------------------------|
|-2-------------3---(3)--------|-2-------------0---(0)--------|


|-------------------------3--2p0-----|----------------------------||
|-------3-(3)-----------3--------3p0-|-------3-(3)---------3-(3)--||
|-----2-------0------0---------------|-----2-------2-----0--------||
|---0-------------0------------------|---0-------------2----------||
|------------------------------------|----------------------------||
|-2-------------3--------------------|-2-------------0------------||
|
|------------------------------------|----------------------------||
|-3---3---(3)---3---(3)--------------|-3---3---(3)----------------||
|-2-------------2---(2)--------------|-2-------------0---0--------||
|-0-------------0---(0)--------------|-0-------------0---0--------||
|------------------------------------|----------------------------||
|-2-------------3---(3)--------------|-2-------------0---0--------||


 Chorus
  Gtr II
|-2-2-2---2-(2)-2-2-(2)-2-2---|-2-2-2---2-(2)-2-2-(2)-2-2---|
|-2-2-2---4-(4)-4-4-(4)-4-4---|-2-2-2---4-(4)-4-4-(4)-4-4---|
|---------4-(4)-4-4-(4)-4-4---|---------4-(4)-4-4-(4)-4-4---|
|-4-4-4---4-(4)-4-4-(4)-4-4---|-4-4-4---1-(1)-1-1-(1)-1-1---|
|-4-4-4---2-(2)-2-2-(2)-2-2---|-4-4-4-----------------------|
|-2-2-2-----------------------|-2-2-2---4-(4)-4-4-(4)-4-4---|
|
| Gtr IV
|-----------------------------|-----------------------------|
|-2-----4-4-(4)-------------2-|-2-----4-4-(4)-------------2-|
|-3-----4-4-(4)-------------3-|-3-----4-4-(4)-------------3-|
|-----------------------------|-----------------------------|
|-------2-2-(2)---------------|-----------------------------|
|-2---4-6---------------------|-2-----4-4-(4)---------------|


|-2-2-2---2-(2)-2-2-(2)-2-2----|
|-2-2-2---4-(4)-4-4-(4)-4-4----|
|---------4-(4)-4-4-(4)-4-4----|
|-4-4-4---4-(4)-4-4-(4)-4-4----|
|-4-4-4---2-(2)-2-2-(2)-2-2----|
|-2-2-2------------------------|
|
|------------------------------|
|-2-----4-4-(4)-------------2--|
|-3-----4-4-(4)-------------3--|
|------------------------------|
|-------2-2-(2)----------------|
|-2---4-6----------------------|


|-2-2-2---2-(2)-2-2-(2)-2-2---|-2-2-2---2-(2)-2-2-(2)-2-2---|
|-2-2-2---4-(4)-4-4-(4)-4-4---|-2-2-2---4-(4)-4-4-(4)-4-4---|
|---------4-(4)-4-4-(4)-4-4---|---------4-(4)-4-4-(4)-4-4---|
|-4-4-4---1-(1)-1-1-(1)-1-1---|-4-4-4---4-(4)-4-4-(4)-4-4---|
|-4-4-4-----------------------|-4-4-4---2-(2)-2-2-(2)-2-2---|
|-2-2-2---4-(4)-4-4-(4)-4-4---|-2-2-2-----------------------|
|
|-----------------------------|-----------------------------|
|-2-----4-4-(4)-------------2-|-2-----4-4-(4)-------------2-|
|-3-----4-4-(4)-------------3-|-3-----4-4-(4)-------------3-|
|-----------------------------|-----------------------------|
|-----------------------------|-------2-2-(2)---------------|
|-2-----4-4-(4)---------------|-2---4-6---------------------|


|-2-2-2---2-(2)-2-2-(2)-2-2----|
|-2-2-2---4-(4)-4-4-(4)-4-4----|
|---------4-(4)-4-4-(4)-4-4----|
|-4-4-4---1-(1)-1-1-(1)-1-1----|
|-4-4-4------------------------|
|-2-2-2---4-(4)-4-4-(4)-4-4----|
|
|------------------------------|
|-2-----4-4-(4)-------------5--|
|-3-----4-4-(4)-------------6--|
|------------------------------|
|------------------------------|
|-2-----4-4-(4)----------------|


                                                        Coda
                                                         Gtr I
|-0-0-0-----------------------|-2-2-2---2-(2)-2-2-2-2-||--3--3----3---3---|
|-2-2-2---5-(5)-5-5-(5)-5-5---|-2-2-2---2-(2)-2-2-2-2-||--0--0-0--0---0---|
|-2-2-2---4-(4)-4-4-(4)-4-4---|-----------------------||--0--0-0--0---0---|
|-2-2-2---2-(2)-2-2-(2)-2-2---|-4-4-4---4-(4)-4-4-4-4-||-------2--2-2-----|
|-0-0-0---2-(2)-2-2-(2)-2-2---|-4-4-4---4-(4)-4-4-4-4-||--3-------3-3-----|
|---------0-(0)-0-0-(0)-0-0---|-2-2-2---2-(2)-2-2-2-2-||------------------|
|
|                                                        Gtr II
|-----------------------------|-----------------------||------------------|
|-5-----5-5-(5)---------------|-2-----2-2-(2)---------||-(2)--------------|
|-6-------------------------6-|-3-----3-3-(3)---------||-(3)--------------|
|-------6-6-(6)-------------8-|-----------------------||------------------|
|-0---------------------------|-----------------------||------------------|
|-5-----0-0-(0)---------------|-2-----2-2-(2)---------||-(2)--------------|


|-5--5-----5---5---|--3--3----3---3--|
|-0--0--0--0---0---|--0--0-0--0---0--|
|-0--0--0--0-0-0---|--0--0-0--0---0--|
|----4--4----4-----|-------2--2-2----|
|-5----------5-----|--3-------3-3----|
|------------------|-----------------|
|
|------------------|-----------------|
|--------------7h9-|-(9)-------------|
|------------------|-----------------|
|------------------|-----------------|
|------------------|-----------------|
|------------------|-----------------|


|-5--5----5------5----|-3---3--------3---3--|
|-0--0-0--0------0----|-0---0-----0--0---0--|
|-0--0-0--0---0--0----|-0---0-----0--0---0--|
|----4-4------4-------|-----------2--2-2----|
|-5-----------5-------|-3------------3-3----|
|---------------------|---------------------|
|
|-----------7h9-(9)-7-|---------------------|
|---------------------|-7h9---(9)-----------|
|---------------------|---------------------|
|---------------------|---------------------|
|---------------------|---------------------|
|---------------------|---------------------|


|-5-5----5---5--|-3-3-3--3-3-----|-0-0-0-0-0-0-0-0-0-0--|
|-0-0-0--0---0--|-0-0-0--0-0---0-|-0-0-0-0-0-0-0-0-0-0--|
|-0-0-0--0-0-0--|-0-0-0--0-0---0-|-0-0-0-0-0-0-0-0-0-0--|
|---4-4----4----|-----2--2-------|-2-2-2-2-2-2-2-2-2-2--|
|-5--------5----|-3----------3---|-3-3-3-3-3-3-3-3-3-3--|
|---------------|----------------|----------------------|
|
|---------------|----------------|----------------------|
|-7-------------|----------------|----------------------|
|---------------|----------------|----------------------|
|---------------|----------------|----------------------|
|---------------|----------------|----------------------|
|---------------|----------------|----------------------|


|-3--3--3--3--|-3--3--^3----|-(3)----*|
|-0--0--0--0--|-0--0--^0----|-(0)----*|
|-0--0--0--0--|-0--0--^0----|-(0)----*|
|-2--2--2--2--|-2--2--^2----|-(2)----*|
|-3--3--3--3--|-3--3--^3----|-(3)----*|
|-------------|-------------|--------*|


Tablature Legend
----------------
 h   - hammer-on
 p   - pull-off
 b   - bend
 pb  - pre-bend
 r   - bend release (if no number after the r, then release immediately)
 /\  - slide into or out of (from/to "nowhere")
 s   - legato slide
 S   - shift slide
  - natural harmonic
[n]  - artificial harmonic
n(n) - tapped harmonic
 ~   - vibrato
 tr  - trill
 T   - tap
 TP  - trem. picking
 PM  - palm muting
\n/  - tremolo bar dip; n = amount to dip
 \n  - tremolo bar down
 n/  - tremolo bar up
/n\  - tremolo bar inverted dip
 =   - hold bend; also acts as connecting device for hammers/pulls
   - volume swell (louder/softer)
 x   - on rhythm slash represents muted slash
 o   - on rhythm slash represents single note slash

Misc Legend
-----------
 |  - bar
||  - double bar
||o - repeat start
o|| - repeat end
*|  - double bar (ending)
 :  - bar (freetime)
 $  - Segno
 &  - Coda
Tempo markers -  = BPM(8/16=s8/s16), where s8 = swing 8ths, s16 = swing 16ths


***************************************************************************************
* Generated using Power Tab Editor by Brad Larsen - http://powertab.guitarnetwork.org *
***************************************************************************************
Comments