Morissette Alanis - Ironic Chords & Tabs

 

Ironic Chords & Tabs

Morissette Alanis Chords & Tabs

Version: 2 Type: Bass Tab 0 ratings
1 star 2 stars 3 stars 4 stars 5 stars
comments

Ironic Bass Tab

#----------------------------------PLEASE NOTE---------------------------------#
#This file is the author's own work and represents their interpretation of the #
#song. You may only use this file for private study, scholarship, or research. #
#------------------------------------------------------------------------------##

                                IRONIC (Bassline)
                        As recorded by Alanis Morissette
                    (From the 1995 Album JAGGED LITTLE PILL)

Words and Music by Alanis Morissette & Glen Ballard
Transcribed by Michael "Rattlesnake" Tee www.geocities.com/michaelbydemand

 Intro
  Q=85
 4/4
  Gtr I
|-----|
|-----|
|-----|
|-----|


           1st Verse
            Q=85
|---------|-----|
|---------|-----|
|---------|-----|
|---------|-----|


                               Chorus
  Q=82      Q=85
|---------|---------|---------|-------------------------|
|---------|---------|---------|-------------------------|
|---------|---------|---------|-------2-(2)-1-2-(2)-2-2-|
|---------|---------|---------|-2-2-2-------------------|


|-------------------------|-------------------------|-------------------------|
|-------------------------|-------------------------|-------------------------|
|-------------------------|-------2-(2)-1-2-(2)-2-2-|-------------------------|
|-2-2-2-4-(4)-2-4-(4)-4-4-|-2-2-2-------------------|-2-2-2-4-(4)-2-4-(4)-4-4-|


|-------------------------|-------------------------|
|-------------------------|-------------------------|
|-------2-(2)-1-2-(2)-2-2-|-------------------------|
|-2-2-2-------------------|-2-2-2-4-(4)-2-4-(4)-4-4-|


|-----------------|-------------3--------|
|--------------1--|---------------4------|
|-----------------|-----------------4-2--|
|-5-4-2-0-(0)-----|-2-2-2-2-(2)----------|


 2nd Verse
|------------------------|-------------------------|--------------------------|
|------------------------|-------------------------|--------------------------|
|-1-1-(1)-2-(2)--2-(2)-2-|-1-1-(1)-----------------|--------------------------|
|------------------------|---------4-(4)-4-(4)-2-4-|-6-6-(6)-7-(7)--7-(7)-9-7-|


|-----------------------------|
|-----------------------------|
|---------------2-4-6-(6)-4-2-|
|-6-6-(6)-4-(4)---------------|


|-----------------------|---------------------------|
|-----------------------|---------------------------|
|-1-1-(1)-2-(2)-2-(2)-2-|-1-1-(1)-------------------|
|-----------------------|---------4-(4)--4-(4)-2-4--|


|--------------------------|-----------------------|
|--------------------------|---------------------6-|
|--------------------------|-----------------------|
|-6-6-(6)-7-(7)--7-(7)-9-7-|-6-6-(6)-4-(4)-4-(4)---|


|------------4-(4)--4-(4)-6-4--|
|-(6)--6-(6)-------------------|
|------------------------------|
|------------------------------|


                          Chorus
|-3-3-(3)-1-(1)--1-(1)-1-|-------------------------|--------------------------|
|------------------------|-------------------------|--------------------------|
|------------------------|-------2-(2)-1-2-(2)-2-2-|--------------------------|
|------------------------|-2-2-2-------------------|-2-2-2-4-(4)-2-4-(4)-4-4--|


|-------------------------|-------------------------|-------------------------|
|-------------------------|-------------------------|-------------------------|
|-------2-(2)-1-2-(2)-2-2-|-------------------------|-------2-(2)-1-2-(2)-2-2-|
|-2-2-2-------------------|-2-2-2-4-(4)-2-4-(4)-4-4-|-2-2-2-------------------|


|-------------------------|-----------------|
|-------------------------|--------------1--|
|-------------------------|-----------------|
|-2-2-2-4-(4)-2-4-(4)-4-4-|-5-4-2-0-(0)-----|


                       Bridge
|---------------------|------------------|
|-----------4-4-------|------------------|
|---------4-----4---4-|-5---5-(5)-5-(5)--|
|-2-2-2-2---------2---|------------------|


|------------------|-----------------2-|
|-4---4-(4)-4-(4)--|-2---2-(2)-4-(4)---|
|------------------|-------------------|
|------------------|-------------------|

[ Tab from: http://www.guitartabs.cc/tabs/m/morissette_alanis/ironic_btab_ver_2.html ]
|---------------------|-------------------|
|-4---4-(4)-4-(4)-----|-2---2-(2)-2-(2)---|
|-----------------2-4-|-------------------|
|---------------------|-------------------|


                                                               3rd Verse
|----------------|---------------------|-4-3-(3)--------------|-3---4-(4)----|
|-4---4-(4)-4--4-|-2---2-(2)-2-(2)-4-6-|---------4-(4)--------|--------------|
|----------------|---------------------|---------------2-(2)--|--------------|
|----------------|---------------------|----------------------|--------------|


|-3---1-(1)----|-3---4-(4)----|-3---1-(1)----|-3---4-(4)----|
|--------------|--------------|--------------|--------------|
|--------------|--------------|--------------|--------------|
|--------------|--------------|--------------|--------------|


                                              2/4      4/4
|-3---1-(1)----|-3---4-(4)----|-3---1-(1)----|-(1)----|-3---4-(4)----|
|--------------|--------------|--------------|--------|--------------|
|--------------|--------------|--------------|--------|--------------|
|--------------|--------------|--------------|--------|--------------|


                                              Chorus
|-3---1-(1)----|-3---4-(4)----|-3---1-(1)----|-------------------------|
|--------------|--------------|--------------|-------------------------|
|--------------|--------------|--------------|-------2-(2)-1-2-(2)-2-2-|
|--------------|--------------|--------------|-2-2-2-------------------|


|-------------------------|-------------------------|-------------------------|
|-------------------------|-------------------------|-------------------------|
|-------------------------|-------2-(2)-1-2-(2)-2-2-|-------------------------|
|-2-2-2-4-(4)-2-4-(4)-4-4-|-2-2-2-------------------|-2-2-2-4-(4)-2-4-(4)-4-4-|


|-------------------------|-------------------------|-----------------|
|-------------------------|-------------------------|--------------1--|
|-------2-(2)-1-2-(2)-2-2-|-------------------------|-----------------|
|-2-2-2-------------------|-2-2-2-4-(4)-2-4-(4)-4-4-|-5-4-2-0-(0)-----|


                       Outro
|-------------------6-|-7------11--|-11------------|-9----(9)--11-(11)-11-|
|-----------4-----4---|------------|----------9-11-|----------------------|
|---------4-----4-----|------------|---------------|----------------------|
|-2-2-2-2-----2-------|------------|---------------|----------------------|


|-11-------11-|-9----(9)--11-(11)--|-11----(11)------------|-9----|
|-------------|--------------------|------------9-11--9-11-|------|
|-------------|--------------------|-----------------------|------|
|-------------|--------------------|-----------------------|------|


|-(9)------9-(9)---|----------------|------------|--------*|
|----------------9-|-(9)----(9)-----|------------|--------*|
|------------------|----------------|------------|--------*|
|------------------|--------------0-|-(0)--------|-(0)----*|


Tablature Legend
----------------
 h   - hammer-on
 p   - pull-off
 b   - bend
 pb  - pre-bend
 r   - bend release (if no number after the r, then release immediately)
 /\  - slide into or out of (from/to "nowhere")
 s   - legato slide
 S   - shift slide
  - natural harmonic
[n]  - artificial harmonic
n(n) - tapped harmonic
 ~   - vibrato
 tr  - trill
 T   - tap
 TP  - trem. picking
 PM  - palm muting
\n/  - tremolo bar dip; n = amount to dip
 \n  - tremolo bar down
 n/  - tremolo bar up
/n\  - tremolo bar inverted dip
 =   - hold bend; also acts as connecting device for hammers/pulls
   - volume swell (louder/softer)
 x   - on rhythm slash represents muted slash
 o   - on rhythm slash represents single note slash

Misc Legend
-----------
 |  - bar
||  - double bar
||o - repeat start
o|| - repeat end
*|  - double bar (ending)
 :  - bar (freetime)
 $  - Segno
 &  - Coda
Tempo markers -  = BPM(8/16=s8/s16), where s8 = swing 8ths, s16 = swing 16ths


***************************************************************************************
* Generated using Power Tab Editor by Brad Larsen - http://powertab.guitarnetwork.org *
***************************************************************************************
Comments