Morissette Alanis - Hands Clean Chords & Tabs

 

Hands Clean Chords & Tabs

Morissette Alanis Chords & Tabs

Version: 2 Type: Tab 0 ratings
1 star 2 stars 3 stars 4 stars 5 stars
comments

Hands Clean Tab

   
Alanis Morissette: Hands Clean.

Tabbed By: Rasmus Lind Jensen. 30/4-2002. (Rasmus68@yahoo.dk).

I dont know if its 100% correct, but this is as close i got, by lisining.


Intro:
    C?       D?         B?          C? 
E]-----------------------------------------------
B]--------3--------3------------------------3----
G]--------0----------------------0--------0---0--
D]-----2--------4-------------0--------2---------
A]--3--------5----------5--2--------3------------
E]-----------------------------------------------
[ Tab from: http://www.guitartabs.cc/tabs/m/morissette_alanis/hands_clean_tab_ver_2.html ]
Vers:
    C        D        Bm       C
E]--3--------5--------2--------3-----------------
B]--5--------7--------3--------5-----------------
G]--5--------7--------4--------5-----------------
D]--5--------7--------4--------5-----------------
A]--3--------5--------2--------3-----------------
E]--3--------5--------2--------3-----------------


Brige: 


    Em       C        G        D
E]--0--------3--------3--------5--------
B]--2--------5--------2--------7--------
G]--2--------5--------0--------7--------
D]--0--------5--------0--------7--------
A]--0--------3--------0--------5--------
E]--0--------3--------2--------5--------
Comments