Morissette Alanis - Hands Clean Chords & Tabs

 

Hands Clean Chords & Tabs

Morissette Alanis Chords & Tabs

Version: 1 Type: Chords 0 ratings
1 star 2 stars 3 stars 4 stars 5 stars
comments

Hands Clean Chords

   
##################################################################################
# This file is the author's own work and represents their interpretation of the  #
# song. You may only use this file for private study, scholarship, or research.  #
##################################################################################

Artist : Alanis Morissette.
Song : Hands Clean.
Album : Under Rug Swept.

I found this 100 % accurate tab on a French site. Enjoy !
(Great thanks to the one who wrote it.)
    
Veuillez noter que la tablature ci dessous repr├ęsente le fruit du travail de son auteur et ne peut en aucun cas faire l'objet d'une quelconque utilisation commerciale 

Riff1 (Intro / verse)
e------------------------0-----
B-----3-----3--------3-----3---
G---0-----2--------0-----------
D-------0----------------------
A-3--------------2-----3-------
E------------------------------
  Cadd9 Dsus2    D/B   Cadd9

[Intro] (Riff1)
Cadd9   Dsus2   D/B   Cadd9 

[Verse1]

Lead1 (clean guitar)
e-12~-12~-14~-14~-10~-10~-12~-12~-
B---------------------------------
G---------------------------------
D---------------------------------
A---------------------------------
E---------------------------------

Lead2 (distortion guitar)
e-9p8-9p8----------9p8-9p8-10~~---9p8-9p8----------9p8-9p8-10~~--
B---------9~~----------------------------------------------------
G----------------------------------------------------------------
D----------------------------------------------------------------
A----------------------------------------------------------------
E----------------------------------------------------------------

[Pre-chorus] (Lead1, Lead2)
Cadd9      Dsus2        D/B        Cadd9 
   Oo______ooh____ this could_ be_ mes__sy___  but
Cadd9      Dsus2         D/B       Cadd9 
   You_________ don't__  seem_ to_ mi_____ind
Cadd9      Dsus2         D/B           Cadd9 
   Ooh_________ don't go telling_ everybody__  and
Cadd9      Dsus2          D/B   Cadd9    ///
   O___ver_look__ this supposed crime___
[ Tab from: http://www.guitartabs.cc/tabs/m/morissette_alanis/hands_clean_crd.html ]
Lead3 (Chorus)
e-7~-7~-5~-5~-7~-7~-7/8-8~-
B--------------------------
G--------------------------
D--------------------------
A--------------------------
E--------------------------

[Chorus] (Lead3)
C5 D5 B C5

[Verse]
Cadd9 Dsus2 D/B Cadd9

[Pre-chorus] (Lead1, Lead2)
Cadd9 Dsus2 D/B Cadd9 

[Chorus] (Lead3)
C5 D5 B5 C5


[Bridge]
Em                C              G                     D
What part_ of our history's_ reinvented_ and under rug swept_?
Em                 C            G                        D
What part_ of your memory_ is selective_ and tends to forget_?
D
what with this distance it seems so obvious?


[Verse]
Cadd9 Dsus2 D/B Cadd9



[Repeat Pre-chorus]

[Repeat Chorus]

[Outro] (Lead3, little bit piano)
C5   D5   B5   C5
C5   D5   B5   C5
C5   D5   B5   C5
C5   D5   B5   C5

Fade out..

Chords:
Cadd9 x32030
Dsus2 xx0230
D/B   x20030
C5    x35xxx
D5    x57xxx
B5    x24xxx
Em    022000
C     x32010
G     320033
D     xx0232

Transcribed by arjan@rawktabs.tmfweb.nl
***************************************


Alanis Morisette - Hands Clean
------------------------------
Tabbed By : Alon Ascher
**Standard Tuning**
**Listen to the song to get the right pettern, u can use power cords...**

Intro, Verses & Chorus :

      G          D        Bm        C
e|--3-3-3-3---2-2-2-2---2-2-2-2---0-0-0-0--|
B|--3-3-3-3---3-3-3-3---3-3-3-3---1-1-1-1--|
G|--0-0-0-0---2-2-2-2---4-4-4-4---0-0-0-0--|
D|--0-0-0-0---0-0-0-0---4-4-4-4---2-2-2-2--|
A|--2-2-2-2-------------2-2-2-2---3-3-3-3--|
E|--3-3-3-3--------------------------------|

Bridge (3rd Berse) :

        Bm        C         G         D
e|----2-2-2-2---0-0-0-0--3-3-3-3---2-2-2-2--|
B|----3-3-3-3---1-1-1-1--3-3-3-3---3-3-3-3--|
G|----4-4-4-4---0-0-0-0--0-0-0-0---2-2-2-2--|
D|----4-4-4-4---2-2-2-2--0-0-0-0---0-0-0-0--|
A|----2-2-2-2---3-3-3-3--2-2-2-2------------|
E|-----------------------3-3-3-3------------|
Comments