Morissette Alanis - Doth I Protest Too Much Chords & Tabs

 

Doth I Protest Too Much Chords & Tabs

Morissette Alanis Chords & Tabs

Version: 1 Type: Chords 1 rating
1 star 2 stars 3 stars 4 stars 5 stars
comments

Doth I Protest Too Much Chords

   
Alanis Morissette - Doth I Protest Too Much

E|--------|--------|--------|--------|
A|--------|3-------|3-------|--------|
D|0-------|--------|--------|0-------|
G|-2-2----|-0-0--0-|-0-0-0-0|-2-2----|
B|--3----3|--3--3-3|--3---3-|--3--3-3|
e|----1-0-|----3---|----0---|----1-0-|
[ Tab from: http://www.guitartabs.cc/tabs/m/morissette_alanis/doth_i_protest_too_much_crd.html ]
Verse: E|--------|--------|--------|------------|
       A|--------|3-------|3-------|------------|
       D|0-------|--------|--------|0-----------|
       G|-2-2----|-0-0--0-|-0-0-0-0|-2-2--------|
       B|--3----3|--3--3-3|--3---3-|--3--------3|
       e|----1-0-|----3---|----0---|----1-0h2p0-|

chorus: Bm|C|Bm|C|Bm|C|Em,F#m|G

C part: A9|F?,E?| X3 A9|A9

from the second vese you can stop the picking and start rockin'


A9:E 5    F?:x  E?:x
   A 7       x     x
   D 7       3     2
   G 6       5     4
   B 0       6     5
   e 0       0     0

by Dror Cohen: iceman1307@hotmail.com
Comments