Morissette Alanis - Baba Chords & Tabs

 

Baba Chords & Tabs

Morissette Alanis Chords & Tabs

Version: 1 Type: Tab 0 ratings
1 star 2 stars 3 stars 4 stars 5 stars
comments

Baba Tab

   
##################################################################################
# This file is the author's own work and represents their interpretation of the  #
# song. You may only use this file for private study, scholarship, or research.  #
##################################################################################

Song:Baba
Artist:Alanis Morissette
CD:Suppossed Former Infatuation Junkie

Intro and Verse:

/:Slide
x:mute
[ Tab from: http://www.guitartabs.cc/tabs/m/morissette_alanis/baba_tab.html ]
  F#                -   G
E-----------------------------------------------
B-----------------------------------------------
G-11--11--11---9/-11---12--12--12--12--12/11----
D-x---x---x----x/-x-----x---x---x---x---x/x-----
A-9---9---9----7/-9----10--10--10--10--10/9-----
E-----------------------------------------------

Verse

Chorus 3x

   F#        - G  -F# 
E------0--------------
B------0--------------
G------3--------------
D--4-4-4-4-4---5~---4-
A--4-4-4-4-4---5~---4-
E--2-2-2-2-2---3~---2-


E--------------------
B--------------------
G--------------------
D--------------------
A--5~---4--2--1~-----
E--------------------


REPEAT CHORUS

F#   G
Ave Maria
Comments