Morcheeba - Undress Me Now Chords & Tabs

 

Undress Me Now Chords & Tabs

Morcheeba Chords & Tabs

Version: 1 Type: Tab 0 ratings
1 star 2 stars 3 stars 4 stars 5 stars
comments

Undress Me Now Tab

   
undress me now

by morcheeba
from new album 'charango'

transcribed by Christian Reindel (creindel@gmx.de)
any questions or corrections- e-mail me

Normal tuning

play with capo on 3.Fret

 Intro,Verse

      3 times
   Am          C             G        D
:|-0-----------0--------|----3--------2-----|
:|-1-----------1--------|----3--------3-----|
:|-2-----------0--------|----0--------2-----|
:|-2-----------2--------|----0--------0-----|
:|-0-----------3--------|----2--------------|
:|----------------------|----3--------------|

Chorus
   A           Cmaj         D
:|-0-----------0------------2-----|
:|-2-----------0------------3-----|
:|-2-----------0------------2-----|
:|-2-----------2------------0-----|
:|-0-----------3------------------|
:|--------------------------------|


Verse 1
Am          C
using your mind
Am           C
imagine our skin
Am             C  
joined at the hip
 G           D
joined from within

Am             C 
By using your eyes
Am                   C
you're freezing my frame
Am             C
watching our clothes
 G            D
burst into flames
[ Tab from: http://www.guitartabs.cc/tabs/m/morcheeba/undress_me_now_tab.html ]
Chorus 1
A          Cmaj           D  
undress me now, you know how
using your eyes,now
A          Cmaj           D
undress me now, you know how
using your mind
            Am
using your mind

Verse 2
Am             C
so give me a light
Am             C
or give me a drink
Am              C
just give me a reason
 G               D      
to feel what I think

Chorus 2
A          Cmaj           D  
undress me now, you know how
using your eyes, now
A          Cmaj           D
undress me now, you know how
using your mind

Interlude
play something on Am

Chorus 3
A          Cmaj           D  
undress me now, you know how
using your eyes,now
A          Cmaj           D
undress me now, you know how
using your mind
losing my mind

A          Cmaj           D  
undress me now, you know how
using your eyes,now
A          Cmaj           D
undress me now, you know how

A        Cmaj            D
you know how , you know how

A        Cmaj            D
you know how , you know how

end.
Comments