Moravagine - Vizi Chords & Tabs

 

Vizi Chords & Tabs

Moravagine Chords & Tabs

Version: 3 Type: Tab 0 ratings
1 star 2 stars 3 stars 4 stars 5 stars
comments

Vizi Tab

Titolo: Vizi
Autore: Moravagine
Tab by: Fony


Intro

   1 + 2 + 3 + 4 + 1 + 2 + 3 + 4 + 1 + 2 + 3 + 4 + 1 + 2 + 3 + 4 +
E-------------------------------------------------------------------|
B-------------------------------------------------------------------|
G--7-x-x-x-x-x-x-x-----------------4-x-x-x-x-x-x-x------------------|
D--7-x-x-x-x-x-x-x-4-x-x-x-x-x-x-x-4-x-x-x-x-x-x-x-5-x-x-x-x-x-x-x--|
A--5-x-x-x-x-x-x-x-4-x-x-x-x-x-x-x-2-x-x-x-x-x-x-x-5-x-x-x-x-x-x-x--|
E------------------2-x-x-x-x-x-x-x-----------------3-x-x-x-x-x-x-x--|
   1 + 2 + 3 + 4 + 1 + 2 + 3 + 4 + 1 + 2 + 3 + 4 + 1 + 2 + 3 + 4 +
E-------------------------------------------------------------------|
B-------------------------------------------------------------------|
G--7-x-x-x-x-x-x-x-----------------4-x-x-x-x-x-x-x------------------|
D--7-x-x-x-x-x-x-x-4-x-x-x-x-x-x-x-4-x-x-x-x-x-x-x-5x---------------|
A--5-x-x-x-x-x-x-x-4-x-x-x-x-x-x-x-2-x-x-x-x-x-x-x-5x---------------|
E------------------2-x-x-x-x-x-x-x-----------------3x---------------|
[ Tab from: http://www.guitartabs.cc/tabs/m/moravagine/vizi_tab_ver_3.html ]
Riff1

   1 + 2 + 3 + 4 + 1 + 2 + 3 + 4 + 1 + 2 + 3 + 4 + 1 + 2 + 3 + 4 +
E-------------------------------------------------------------------|
B-------------------------------------------------------------------|
G--7-7-7-7-7-7-7-7-----------------4-4-4-4-4-4-4-4------------------|
D--7-7-7-7-7-7-7-7-4-4-4-4-4-4-4-4-4-4-4-4-4-4-4-4-5-5-5-5-5-5-5-5--|
A--5-5-5-5-5-5-5-5-4-4-4-4-4-4-4-4-2-2-2-2-2-2-2-2-5-5-5-5-5-5-5-5--|
E------------------2-2-2-2-2-2-2-2-----------------3-3-3-3-3-3-3-3--|


Riff2

   1 + 2 + 3 + 4 + 1 + 2 + 3 + 4 + 1 + 2 + 3 + 4 + 1 + 2 + 3 + 4 +
E-------------------------------------------------------------------|
B-------------------------------------------------------------------|
G--8-/-10-/12----12--------8-------14-/13-/-12--12---------8--------|
D--8-/-10-/12----1210x-x-x-8-------14-/13-/-12--12-10x-x-x-8--------|
A--6-/-8--/10----1010x-x-x-6-------12-/11-/-10--10-10x-x-x-6--------|
E------------------8-x-x-x-------------------------8-x-x-x----------|


Ordine:

Riff1
Riff2
Riff3
Riff2
Riff3
Comments