Moore Vinnie - Shodows Of Yesterday Chords & Tabs

 

Shodows Of Yesterday Chords & Tabs

Moore Vinnie Chords & Tabs

Version: 1 Type: Tab 0 ratings
1 star 2 stars 3 stars 4 stars 5 stars
comments

Shodows Of Yesterday Tab

                             Shadows Of Yesterday                               


                                                                    Vinnie Moore
Guitar2



                                                               
E||------|------9---------------|--10h9-----------------------|
B||------|--7-------10----------|-------10--------------------|
G||------|----------------------|----------9-7-6-7-9----------|
D||------|----------------------|--------------------7--------|
A||------|----------------------|-----------------------------|
E||------|----------------------|-----------------------------|


                                                                       
-------------------------|---------------------|------9---------------|
-------------------------|--7------------------|--7-------10----------|
--6----7--7-----------7--|---------9--9--------|----------------------|
-------------------9-----|---------------------|----------------------|
---------------10--------|---------------------|----------------------|
-------------------------|---------------------|----------------------|


                                                        
--10h9-----------------------|-------------------------|
-------10--------------------|-------------------------|
----------9-7-6-7-9----------|--6----7--7-----------7--|
--------------------7--------|-------------------9-----|
-----------------------------|---------------10--------|
-----------------------------|-------------------------|


                                                   
------------6----5--6-5-|-------------------------|
--7---------------------|--6-------------6----6-8-|
-------9----------------|---------7-5-7-----------|
------------------------|-------------------------|
------------------------|-------------------------|
------------------------|-------------------------|


                                                          
-----------8-6-5-------------------|---------------------|
--5--------------8-6-5-------------|---------------------|
-----------------------7-5---------|----------7----------|
---------------------------8-7-5---|--5---5--------------|
---------------------------------8-|---------------------|
-----------------------------------|---------------------|


                                                                             
--3-6-5-3-----------3-5-6-5-8-6-5-----------5-6-8-|-------------------------|
----------6-5-3-5-6---------------8-6-5-6-8-------|--6-------------6----6-8-|
--------------------------------------------------|---------7-5-7-----------|
--------------------------------------------------|-------------------------|
--------------------------------------------------|-------------------------|
--------------------------------------------------|-------------------------|


                                                                
--5--------12-10-8-----------------------|---------------------|
-------------------11-10-8---------------|---------------------|
---------------------------10-9-7--------|---------10----------|
----------------------------------10-8-7-|--8------------------|
-----------------------------------------|---------------------|
-----------------------------------------|---------------------|


                                                                           
--10-13-12-10----------------10-12-13-12-15-13-12----------------12-13-15-|
--------------13-11-10-11-13----------------------15-13-11-13-15----------|
--------------------------------------------------------------------------|
--------------------------------------------------------------------------|
--------------------------------------------------------------------------|
--------------------------------------------------------------------------|


                                                 
--17--------18-16-15----------------------------|
---------------------18-16-14-------------------|
------------------------------17-15-13----------|
---------------------------------------17-15-13-|
------------------------------------------------|
------------------------------------------------|


                                     
------------------------------------|
------------------------------------|
--15--17----------13--15------------|
----------17--17----------15--------|
------------------------------------|
------------------------------------|


                                                              
-------8-11-9-8--------------------------------------------8-|
-----9----------11-9-8------------------------------8-9-11---|
--10-------------------10-8--------------------8-10----------|
----------------------------11-10-8----10-8-11---------------|
------------------------------------11-----------------------|
-------------------------------------------------------------|


                                                                        
--11-8---------------------9-6------------------|------9---------------|
-------8--------8--------------7-------7--------|--7-------10----------|
---------8----8---8--------------6---6---6------|----------------------|
-----------10-------10-------------8-------8----|----------------------|
-----------------------11--------------------9--|----------------------|
------------------------------------------------|----------------------|


                                                                              
--10h9-----------------------|-------------------------|---------------------|
-------10--------------------|-------------------------|--7------------------|
----------9-7-6-7-9----------|--6----7--7-----------7--|---------9--9--------|
--------------------7--------|-------------------9-----|---------------------|
-----------------------------|---------------10--------|---------------------|
-----------------------------|-------------------------|---------------------|


                                                                               
------9---------------|--10h9-----------------------|-------------------------|
--7-------10----------|-------10--------------------|-------------------------|
----------------------|----------9-7-6-7-9----------|--6----7--7-----------7--|
----------------------|--------------------7--------|-------------------9-----|
----------------------|-----------------------------|---------------10--------|
----------------------|-----------------------------|-------------------------|


                                                   
------------6----5--6-5-|-------------------------|
--7---------------------|--6-------------6----6-8-|
-------9----------------|---------7-5-7-----------|
------------------------|-------------------------|
------------------------|-------------------------|
------------------------|-------------------------|


                                                          
-----------8-6-5-------------------|---------------------|
--5--------------8-6-5-------------|---------------------|
-----------------------7-5---------|----------7----------|
---------------------------8-7-5---|--5---5--------------|
---------------------------------8-|---------------------|
-----------------------------------|---------------------|


                                                                             
--3-6-5-3-----------3-5-6-5-8-6-5-----------5-6-8-|-------------------------|
----------6-5-3-5-6---------------8-6-5-6-8-------|--6-------------6----6-8-|
--------------------------------------------------|---------7-5-7-----------|
--------------------------------------------------|-------------------------|
--------------------------------------------------|-------------------------|
--------------------------------------------------|-------------------------|


                                                                
--5--------12-10-8-----------------------|---------------------|
-------------------11-10-8---------------|---------------------|
---------------------------10-9-7--------|---------10----------|
----------------------------------10-8-7-|--8------------------|
-----------------------------------------|---------------------|
-----------------------------------------|---------------------|

[ Tab from: http://www.guitartabs.cc/tabs/m/moore_vinnie/shodows_of_yesterday_tab.html ]
                                                                           
--10-13-12-10----------------10-12-13-12-15-13-12----------------12-13-15-|
--------------13-11-10-11-13----------------------15-13-11-13-15----------|
--------------------------------------------------------------------------|
--------------------------------------------------------------------------|
--------------------------------------------------------------------------|
--------------------------------------------------------------------------|


                                                 
--17--------18-16-15----------------------------|
---------------------18-16-14-------------------|
------------------------------17-15-13----------|
---------------------------------------17-15-13-|
------------------------------------------------|
------------------------------------------------|


                                     
------------------------------------|
------------------------------------|
--15--17----------13--15------------|
----------17--17----------15--------|
------------------------------------|
------------------------------------|


                                                              
-------8-11-9-8--------------------------------------------8-|
-----9----------11-9-8------------------------------8-9-11---|
--10-------------------10-8--------------------8-10----------|
----------------------------11-10-8----10-8-11---------------|
------------------------------------11-----------------------|
-------------------------------------------------------------|


                                                                               
--11-8---------------------9-6------------------|----|----|----|----|----|----|
-------8--------8--------------7-------7--------|----|----|----|----|----|----|
---------8----8---8--------------6---6---6------|----|----|----|----|----|----|
-----------10-------10-------------8-------8----|----|----|----|----|----|----|
-----------------------11--------------------9--|----|----|----|----|----|----|
------------------------------------------------|----|----|----|----|----|----|


                                                                      
----|----|----|----|----|----|----|----|----|----|----|----|----|----|
----|----|----|----|----|----|----|----|----|----|----|----|----|----|
----|----|----|----|----|----|----|----|----|----|----|----|----|----|
----|----|----|----|----|----|----|----|----|----|----|----|----|----|
----|----|----|----|----|----|----|----|----|----|----|----|----|----|
----|----|----|----|----|----|----|----|----|----|----|----|----|----|


                                                                               
------9---------------|--10h9-----------------------|-------------------------|
--7-------10----------|-------10--------------------|-------------------------|
----------------------|----------9-7-6-7-9----------|--6----7--7-----------7--|
----------------------|--------------------7--------|-------------------9-----|
----------------------|-----------------------------|---------------10--------|
----------------------|-----------------------------|-------------------------|


                                                                           
---------------------|------9---------------|--10h9-----------------------|
--7------------------|--7-------10----------|-------10--------------------|
---------9--9--------|----------------------|----------9-7-6-7-9----------|
---------------------|----------------------|--------------------7--------|
---------------------|----------------------|-----------------------------|
---------------------|----------------------|-----------------------------|


                                                                             
-------------------------|------------6----5--6-5-|-------------------------|
-------------------------|--7---------------------|--6-------------6----6-8-|
--6----7--7-----------7--|-------9----------------|---------7-5-7-----------|
-------------------9-----|------------------------|-------------------------|
---------------10--------|------------------------|-------------------------|
-------------------------|------------------------|-------------------------|


                                                          
-----------8-6-5-------------------|---------------------|
--5--------------8-6-5-------------|---------------------|
-----------------------7-5---------|----------7----------|
---------------------------8-7-5---|--5---5--------------|
---------------------------------8-|---------------------|
-----------------------------------|---------------------|


                                                                             
--3-6-5-3-----------3-5-6-5-8-6-5-----------5-6-8-|-------------------------|
----------6-5-3-5-6---------------8-6-5-6-8-------|--6-------------6----6-8-|
--------------------------------------------------|---------7-5-7-----------|
--------------------------------------------------|-------------------------|
--------------------------------------------------|-------------------------|
--------------------------------------------------|-------------------------|


                                                                
--5--------12-10-8-----------------------|---------------------|
-------------------11-10-8---------------|---------------------|
---------------------------10-9-7--------|---------10----------|
----------------------------------10-8-7-|--8------------------|
-----------------------------------------|---------------------|
-----------------------------------------|---------------------|


                                                                           
--10-13-12-10----------------10-12-13-12-15-13-12----------------12-13-15-|
--------------13-11-10-11-13----------------------15-13-11-13-15----------|
--------------------------------------------------------------------------|
--------------------------------------------------------------------------|
--------------------------------------------------------------------------|
--------------------------------------------------------------------------|


                                                 
--17--------18-16-15----------------------------|
---------------------18-16-14-------------------|
------------------------------17-15-13----------|
---------------------------------------17-15-13-|
------------------------------------------------|
------------------------------------------------|


                                     
------------------------------------|
------------------------------------|
--15--17----------13--15------------|
----------17--17----------15--------|
------------------------------------|
------------------------------------|


                                                              
-------8-11-9-8--------------------------------------------8-|
-----9----------11-9-8------------------------------8-9-11---|
--10-------------------10-8--------------------8-10----------|
----------------------------11-10-8----10-8-11---------------|
------------------------------------11-----------------------|
-------------------------------------------------------------|


                                                                             
--11-8---------------------9-6------------------|-------------------|---|---|
-------8--------8--------------7-------7--------|-------------------|---|---|
---------8----8---8--------------6---6---6------|-------------------|---|---|
-----------10-------10-------------8-------8----|-------------------|---|---|
-----------------------11--------------------9--|-------------------|---|---|
------------------------------------------------|--7----------------|---|---|


                                                                                
---|---|---|---|---|---|---|---|---|---|---|---|---|---|---|---|---|---|---|---|
---|---|---|---|---|---|---|---|---|---|---|---|---|---|---|---|---|---|---|---|
---|---|---|---|---|---|---|---|---|---|---|---|---|---|---|---|---|---|---|---|
---|---|---|---|---|---|---|---|---|---|---|---|---|---|---|---|---|---|---|---|
---|---|---|---|---|---|---|---|---|---|---|---|---|---|---|---|---|---|---|---|
---|---|---|---|---|---|---|---|---|---|---|---|---|---|---|---|---|---|---|---|


     
---||
---||
---||
---||
---||
---||


Comments