Moore Mandy - Cry Chords & Tabs

 

Cry Chords & Tabs

Moore Mandy Chords & Tabs

Version: 1 Type: Tab 0 ratings
1 star 2 stars 3 stars 4 stars 5 stars
comments

Cry Tab

   
CRY
Mandy Moore

johnsantos_17@yahoo.com

Standard Tuning	(EADGBE)

   C#  Ab   F#  Ebm  Bbm
E--9---x----9----6---6--------------
B--9---13---11---7---6-----------------
G--10--13---11---8---6------------------
D--11--13---11---8---8------------------
A--11--11---9----6---8-----------------
E--9-----------------6------------


VERSE	(C# - Ab- F# - F#)
I always remember				it was late afternoon
It lasted forever				and ended so soon

E-----------------9*----------------------------------------------------------------
B------------------------------------13*------------------11*--------------11*---
G-----------10------------------13-------------------11----------------11---------
D------11-------------------13-------------------11----------------11-------------
A------------------------11--------------------9-----------------9----------------
E---9--------------------------------------------------------------------------------
*-Pause

You were all by yourself staring up at a dark gray sky. I was
E--------------9*-------------------------------------6*----------------------------
B-----------------------------13*------------------7----------11-------------------
G---------10--------------13--------------------8-------------11-------------------
D-----11---------------13--------------------8----------------11-------------------
A-------------------11----------------------------------------9--------------------
E—9------------------------------------------------------------ --------------------

=====¤w&_17=====

Changed.
E---12-sl/--14----13-----9-h-11---9-----------------9---------------
B---12-sl/--14----13-----9-h-11---9---11---9------9---------------
G--------------------------------------9---11--10----10--------------
D-------------------------------------------------------11--------------
A-------------------------------------------------------11---------------
E--------------------------------------------------------9---------------
 
CHORUS	(C# - AbEbmF#)
In places no one will find all your feelings so deep inside
It was then that I realized that forever was in your eyes the moment I saw you cry!
[ Tab from: http://www.guitartabs.cc/tabs/m/moore_mandy/cry_tab.html ]
E----9------------6-------------------------------------
B----9-----13----7-----------11-----------------------
G---10----13----8-----------11-----------------------	(Strumming lang!)
D---11----13----8-----------11-----------------------
A---11----11----6--6-sl-9---9-----------------------
E----9--------------------------------------------------

BRIDGE
I wanted to hold you. I wanted to make it go away.
E---6---------------------------------------------------
B---6----13----11---11-------------------------------
G---6----13----11---11--------------------------------
D---8----13----11---11-------------------------------strumming
A---8----11----9-----9---------------------------------
E---6---------------------------------------------------

I wanted to know you. I wanted to make your everything alright.
E----9-----------6---------------------------------------
B----9----13----6----11---------------------------------
G---10---13----6----11---------------------------------
D---11---13----8----11---------------------------------strumming
A---11---11----8----9-----------------------------------
E ---9-----------6----------------------------------------

I always remember
E--------------9*----------------------------------------
B--------------------------------13-----13h14p13--------------------
G----------10---------------13----------------------13---------
D------11---------------13---------13--------------------------
A--------------------11----------------------------------
E---9---------------------------------------------------

It was late afternoon
E------------------------------------------------------
B-------------11*--------------11*---------------------------
G---------11---------------11------------------------------
D-----11---------------11----------------------------------
A--9-----------------9-----------------------------------
E------------------------------------------------------

 
In places no one will find.
E---12-sl/--14----13-----9-h-11---9-----------------9---------------
B---12-sl/--14----13-----9-h-11---9---11---9------9--------------------
G--------------------------------------9---11---10------10--------------
D-------------------------------------------------------11--------------------------
A-------------------------------------------------------11--------------------------
E-------------------------------------------------------9--------------------------

Repeat chorus	(C# - AbEbmF#) up to the end..



 


Comments