Moore Gary - Still Got The Blues Chords & Tabs

 

Still Got The Blues Chords & Tabs

Moore Gary Chords & Tabs

Version: 2 Type: Tab 0 ratings
1 star 2 stars 3 stars 4 stars 5 stars
comments

Still Got The Blues Tab

   
##################################################################################
# This file is the author's own work and represents their interpretation of the  #
# song. You may only use this file for private study, scholarship, or research.  #
##################################################################################

| STILL GOT THE BLUES

      | Written By Gary Moore
      | From Album Still Got The Blues 1990

      | Tabulatures For Guitar
      | Submitted By Antti Osterlund

      | Gary Moore - The Wild Frontier
      | http://www.geocities.com/TimesSquare/Alley/3287/

      | E-Mail: antti_osterlund@hotmail.com

      | You may only use this file for private
      | study, scholarship, or research.

      | Because the solos were very long
      | and hard to translate, you can
      | find some mistakes from them.
      | This is only my version of this song.

        \ = Slide Down
        / = Slide Up
        ~ = Fast Playing
        p = Pickup
        z = Pickup (a half)





                                 |

          (Dm7)                 (G11)
-----------------------------------------------------|
----15-17-17(18)-------17(18)-17-15------------13-15-|
-14--------------------------------------------------|
-----------------------------------------------------|
-----------------------------------------------------|
-----------------------------------------------------|

  (C)                         (F)
-----------------------------------------------------|
-15(17)---------15(17)--(16)--15----\----------12-13-|
-----------------------------------------------------|
-----------------------------------------------------|
-----------------------------------------------------|
-----------------------------------------------------|

(Bm7dim5)                    (E)
-----------------------------------------------------|
-13(15)---------13(15)--(14)--13--\------------------|
--------------------------------------------14--12---|
-----------------------------------------------------|
-----------------------------------------------------|
-----------------------------------------------------|

 (Am)
-----------------------------------------------------|
-----------------------------------------------------|
-13(14)---------------------------\------------------|
-----------------------------------------------------|
-----------------------------------------------------|
-----------------------------------------------------|



                                     01. 02.  |

-------1-----------1-----------0------------0--------|
-----1---1-------1---1-------1---1--------1----------|
---2-------2---2-------2---0-------0----2------------|
-0---------------------------------------------------|
-------------------------3---------------------------|
-------------3------------------------1-------1-0----|

-------1-----------0---------------------------------|
-----3---3-------0---0-------1-----3-----1-----------|
---2-------2---1-------1---2-----4-----0-------------|
-----------------------------------------------2-----|
-2-----------------------0-----2-----3-----0-3-------|
-------------0---------------------------------------|

-------1-----------1-----------0------------0--------|
-----1---1-------1---1-------1---1--------1----------|
---2-------2---2-------2---0-------0----2------------|
-0---------------------------------------------------|
-------------------------3---------------------------|
-------------3------------------------1-------1-0----|

-------1-----------1---------------------------------|
-----3---3-------3---3---0-0-0-0-0-0-0-0-0-0---------|
---2-------2---2-------2-1-1-1-1-1-1-1-1-1-1---------|
-------------------------2-2-2-2-2-2-2-2-2-2---------|
-2-----------2-----------------------------------0-3-|
-------------------------0-------------------0-3-----|



                                        01.  |

-5-5-5-5-5-5-7-7-7-7-7-7-5-5-5-5-5-5-5-5-5-5-5-5-----|
-5-5-5-5-5-5-8-8-8-8-8-8-5-5-5-5-5-5-6-6-6-6-6-6-----|
-5-5-5-5-5-5-9-9-9-9-9-9-5-5-5-5-5-5-7-7-7-7-7-7-----|
-7-7-7-7-7-7-9-9-9-9-9-9-7-7-7-7-7-7-7-7-7-7-7-7-----|
-----------------------------------------------------|
-----------------------------------------------------|

-0-----------0-----------------1---------------------|
-1-----------0---------------------------------------|
-2-----------1---------------2-----------------------|
-3-----------2-------------2---------2>-----------2--|
-3-----------2-----------0-------3-2-0>-------0-3----|
-1-----------0---------------------------------------|



                                        02.  |

-5-5-5-5-5-5-7-7-7-7-7-7-5-5-5-5-5-5-5-5-5-5-5-5-----|
-5-5-5-5-5-5-8-8-8-8-8-8-5-5-5-5-5-5-6-6-6-6-6-6-----|
-5-5-5-5-5-5-9-9-9-9-9-9-5-5-5-5-5-5-7-7-7-7-7-7-----|
-7-7-7-7-7-7-9-9-9-9-9-9-7-7-7-7-7-7-7-7-7-7-7-7-----|
-----------------------------------------------------|
-----------------------------------------------------|

-0-----------0-----------0---------------------------|
-1-----------0-----------1---------------------------|
-2-----------1-----------2---------------------------|
-3-----------2-----------2-------------------0-2-----|
-3-----------2-----------0-------------0-2-3---------|
-1-----------0---------------------------------------|



                                         03.  |

-1-1-1-1-1-1-0-0-0-0-0-0-0-----0-----0---------------|
-3-3-3-3-3-3-0-0-0-0-0-0-1-----3-----1---------------|
-2-2-2-2-2-2-1-1-1-1-1-1-2-----2-----0---------------|
-----------------------------------------------2-----|
-2-2-2-2-2-2-------------2-----2-----3-----0-3-------|
-------------0-0-0-0-0-0-----------------------------|

-1-1-1-1-1-1-0-0-0-0-0-0-0-----0-----1---------------|
-3-3-3-3-3-3-0-0-0-0-0-0-1-----0-----1---------------|
-2-2-2-2-2-2-1-1-1-1-1-1-2-----1-----2---------------|
-------------------------3-----2-----0---------------|
-2-2-2-2-2-2-------------3-----2---------------------|
-------------0-0-0-0-0-0-1-----0---------------------|

-------0---------|
-----1-----------|
---2-------------|
-----------------|
-0-------3-2-0---|
-----------------|



                                      |

          (Dm7)                 (G11)
-----------------------------------------------------|
----15-17-17(18)-------17(18)-17-15------------13-15-|
-14-----------------------------------------14-------|
-----------------------------------------------------|
-----------------------------------------------------|
-----------------------------------------------------|

  (C)                          (F)
-----------------------------------------------------|
-15(17)---------15(17)-(16)-15-13---\----------12-13-|
--------------------------------------------14-------|
-----------------------------------------------------|
-----------------------------------------------------|
-----------------------------------------------------|

(Bm7dim5)                      (E)
-----------------------------------------------------|
-13(15)---------13(15)-(14)-13-12---\----------------|
--------------------------------------------14--12---|
-----------------------------------------------------|
-----------------------------------------------------|
-----------------------------------------------------|

 (Am)     (E7sus4/B)  (Am/C)
-----------------------------------------------------|
--------------12------12(13)------\------------------|
-13(14)----------------------------------------------|
-----------------------------------------------------|
-----------------------------------------------------|
-----------------------------------------------------|

          (Dm7)          (G11)
---------------------15------------------------------|
----15-17-17(18)--------16(17)-15-16(17)-\-----13-15-|
-14-----------------------------------------14-------|
-----------------------------------------------------|
-----------------------------------------------------|
-----------------------------------------------------|

  (C)                          (F)
-------------13--------------------------------------|
-15(17)---------15(17)-(16)-15-13---\----------12-13-|
--------------------------------------------14-------|
-----------------------------------------------------|
-----------------------------------------------------|
-----------------------------------------------------|

(Bm7dim5)
-----------------------------------------------------|
-14(15)------14(15)-13------14(15)-14(15)--15~13~----|
-----------------------14------------------------14-\|
-----------------------------------------------------|
-----------------------------------------------------|
-----------------------------------------------------|

 (E)
-21(22)---(21)-20~17~15~-----------------------------|
------------------------18~15\13~--------------------|
---------------------------------14-12----12-14-15---|
---------------------------------------15------------|
-----------------------------------------------------|
-----------------------------------------------------|

 (E)
-------------------------------------------------|---|
-------------------------------------------------|---|
-14~15~14~12----12-14-15-14~15~14~12----12----12-|14-|
-------------15----------------------15----15----|---|
-------------------------------------------------|---|
-------------------------------------------------|---|



                                        04.  |

-5-5-5-5-5-5-7-7-7-7-7-7-5-5-5-5-5-5-5-5-5-5-5-5-----|
-5-5-5-5-5-5-8-8-8-8-8-8-5-5-5-5-5-5-6-6-6-6-6-6-----|
-5-5-5-5-5-5-9-9-9-9-9-9-5-5-5-5-5-5-7-7-7-7-7-7-----|
-7-7-7-7-7-7-9-9-9-9-9-9-7-7-7-7-7-7-7-7-7-7-7-7-----|
-----------------------------------------------------|
-----------------------------------------------------|

-0-----------0-----------0---------------0-0-0-0-0---|
-1-----------0-----------1---------------0-0-0-0-0---|
-2-----------1-----------2---------------1-1-1-1-1---|
-3-----------2-----------2---------------2-2-2-2-2---|
-3-----------2-----------0-----0-2-3->---2-2-2-2-2---|
-1-----------0---------------------------0-0-0-0-0---|

-5-5-5-5-5-5-7-7-7-7-7-7-5-5-5-5-5-5-5-5-5-5-5-5-----|
-5-5-5-5-5-5-8-8-8-8-8-8-5-5-5-5-5-5-6-6-6-6-6-6-----|
-5-5-5-5-5-5-9-9-9-9-9-9-5-5-5-5-5-5-7-7-7-7-7-7-----|
-7-7-7-7-7-7-9-9-9-9-9-9-7-7-7-7-7-7-7-7-7-7-7-7-----|
-----------------------------------------------------|
-----------------------------------------------------|

-0-----------------------0---------------------------|
-1-----------------------0---------------------------|
-2-----------------------1---------------------------|
-3-----------------------2---------------------------|
-3-----------------------2---------------------------|
-1-----------------------0---------------------------|



                             |

          (Dm7)                 (G11)
-----------------------------------------------------|
----15-17-17(18)-------17(18)-17-15------------13-15-|
-14-----------------------------------------14-------|
-----------------------------------------------------|
-----------------------------------------------------|
-----------------------------------------------------|
[ Tab from: http://www.guitartabs.cc/tabs/m/moore_gary/still_got_the_blues_tab_ver_2.html ]
  (C)                            (F)
-----------------------------------------------------|
-15(17)---------15(17)-(16)-(15)-13---\--------12-13-|
--------------------------------------------14-------|
-----------------------------------------------------|
-----------------------------------------------------|
-----------------------------------------------------|

(Bm7dim5)                      (E)
-----------------------------------------------------|
-13(15)---------13(15)-(14)-13-12---\----------------|
--------------------------------------------14--12---|
-----------------------------------------------------|
-----------------------------------------------------|
-----------------------------------------------------|

 (Am)     (E7sus4/B)  (Am/C)
-----------------------------------------------------|
--------------12------12(13)------\------------------|
-13(14)----------------------------------------------|
-----------------------------------------------------|
-----------------------------------------------------|
-----------------------------------------------------|

          (Dm7)                 (G11)
-----------------------------------------------------|
----15-17-17(18)-------17(18)-17-15------------13-15-|
-14-----------------------------------------14-------|
-----------------------------------------------------|
-----------------------------------------------------|
-----------------------------------------------------|

  (C)                            (F)
-------------13--------------------------------------|
-15(17)---------15(17)-(16)-(15)-13---\--------12-13-|
--------------------------------------------14-------|
-----------------------------------------------------|
-----------------------------------------------------|
-----------------------------------------------------|

(Bm7dim5)                      (E)
-----------------------------------------------------|
-13(15)---------13(15)-(14)-13-12--------------------|
--------------------------------------------14--12---|
-----------------------------------------------------|
-----------------------------------------------------|
-----------------------------------------------------|

 (Am)
------------------------|----------------------------|
------------------------|-------------------13-15-17-|
-13(14)---14-14-14-(3x)-|-13(14)---------------------|
------------------------|----------------------------|
------------------------|----------------------------|
------------------------|----------------------------|

 (Dm7)                 (G11)
--------------------------------------------------15-|
-17(18)---17(18)---18--17(18)---17-(18)--------------|
-----------------------------------------------------|
-----------------------------------------------------|
-----------------------------------------------------|
-----------------------------------------------------|

 (C)                          (F)
-----------------------------------------------------|
-16(17)-16(17)-------13-15----13-15-\\\--------15-17-|
------------------14-------14------------14-17-------|
-----------------------------------------------------|
-----------------------------------------------------|
-----------------------------------------------------|

(Bm7dim5)                      (E)
-----------------------------------------------------|
-18-17~18~17~15----15-14~15~14~----------------------|
----------------17-------------16--14~16~14~13-14-16-|
-----------------------------------------------------|
-----------------------------------------------------|
-----------------------------------------------------|

 (Am)   (E7sus4/B)      (Am/C)
-----------------------------------------------------|
-----------------------------------------------------|
-9z-----\\-7z-----\\---------------------------------|
--------------------------10z-----\\-------7z-9z-10z-|
-----------------------------------------------------|
-----------------------------------------------------|

 (Dm7)                       (G11)
------------------------------------------------8-10-|
--------------10-8-------------------------8-10------|
-7//9-7------------9-7----7-9-7~9~7~---7-9-----------|
-----------------------10-----------10---------------|
-----------------------------------------------------|
-----------------------------------------------------|

 (C)                       (F)
---------15------------------------------------------|
-16(17)-----16(17)--15-----15----15------------15-17-|
------------------------17----17---------14-17-------|
-----------------------------------------------------|
-----------------------------------------------------|
-----------------------------------------------------|

(Bm7dim5)                            (E)
-13-12~13~12~10--------------------------------------|
----------------13-10--------------------------------|
----------------------12----8(9)--7----7-------------|
-------------------------10---------10-------8//10-9-|
-----------------------------------------------------|
-----------------------------------------------------|

 (Am)     (E7sus4/B)  (Am/C)
-------------------------16(17)--17-15---------------|
---------------------------------------17-15---15-17-|
---------------------------------------------17------|
-10-9~10~9~7-9-7~9~7~--------------------------------|
---------------------10-\\\--------------------------|
-----------------------------------------------------|

 (Dm7)                   (G11)
----------------21(22)-----22--21(22)----------7(8)--|
-15~17~15~-------------------------------------------|
----------17-\\--------------------------------------|
-----------------------------------------------------|
-----------------------------------------------------|
-----------------------------------------------------|

 (C)                    (F)
-----5-----------------------------------------------|
-------8-5~------------------------------------12-13-|
-----------7~5~-----------------------------14-------|
---------------7~5~----------------------------------|
-------------------7~5~------------------------------|
-----------------------8-8---------------------------|

 (Bm7dim5)
-----------------------------------------------------|
-14(15)--13~15~13~12-13---14(15)--13~15~13~12-13-----|
-----------------------------------------------------|
-----------------------------------------------------|
-----------------------------------------------------|
-----------------------------------------------------|

 (E)
-----------------------------------------------------|
-14(15)--13~15~13~12-13---14(15)--13~15~13~12--------|
-----------------------------------------------------|
-----------------------------------------------------|
-----------------------------------------------------|
-----------------------------------------------------|

 (Am)          (E7sus4/B)      (Am/C)
------------------------------------23(24)-23(24)-24-|
-13-12~13~12~10-12-10~12~10~-------------------------|
----------------------------12-\\\-------------------|
-----------------------------------------------------|
-----------------------------------------------------|
-----------------------------------------------------|

 (Dm7)                             (G11)
-23(24)--23(24)---23(24)---23(24)---23(24)--24-24~22-|
-----------------------------------------------------|
-----------------------------------------------------|
-----------------------------------------------------|
-----------------------------------------------------|
-----------------------------------------------------|

        (C)                    (F)
-----------------------------------------------------|
-12(13)-------10-------------------------------------|
-----------------12---8(9)-7-------------------------|
-----------------------------10-7--------------------|
-----------------------------------------------------|
-----------------------------------------------------|

(Bm7dim5)                  (E)
-21(22)----20~22~20~19-----21(22)----20~22~20~19-----|
-----------------------------------------------------|
-----------------------------------------------------|
-----------------------------------------------------|
-----------------------------------------------------|
-----------------------------------------------------|

 (Am)           (E7sus4/B)     (Am/C)
-20-19~20~19~17--19-17~19~17~---------23(24)-----\\\-|
-----------------------------20----------------------|
-----------------------------------------------------|
-----------------------------------------------------|
-----------------------------------------------------|
-----------------------------------------------------|

          (Dm7)                 (G11)
-----------------------------------------------------|
----15-17-17(18)-------17(18)-17-15------------13-15-|
-14-----------------------------------------14-------|
-----------------------------------------------------|
-----------------------------------------------------|
-----------------------------------------------------|

  (C)                            (F)
-----------------------------------------------------|
-15(17)---------15(17)-(16)-(15)-13---\--------12-13-|
--------------------------------------------14-------|
-----------------------------------------------------|
-----------------------------------------------------|
-----------------------------------------------------|

(Bm7dim5)                      (E)
-----------------------------------------------------|
-13(15)---------13(15)-(14)-13-12-----------------12-|
-------------------------------------------13(14)----|
-----------------------------------------------------|
-----------------------------------------------------|
-----------------------------------------------------|

 (Am)            (E7sus4/B)       (Am/C)
-----------------------------------------------------|
-13-12~13~12~10--14(15)-13-17(18)-(17)---------------|
-----------------------------------------------------|
-----------------------------------------------------|
-----------------------------------------------------|
-----------------------------------------------------|

          (Dm7)                 (G11)
-----------------------------------------------------|
----15-17-17(18)-------17(18)-17-15------------13-15-|
-14-----------------------------------------14-------|
-----------------------------------------------------|
-----------------------------------------------------|
-----------------------------------------------------|

  (C)                           (F)
-----------15----------------------------------------|
-15(17)---------15(17)---15-13--15-13--15------12-13-|
--------------------------------------------14-------|
-----------------------------------------------------|
-----------------------------------------------------|
-----------------------------------------------------|

(Bm7dim5)                       (E)
-----------------------------------------------------|
-13(15)---------13(15)-(14)-(13)-12------------------|
---------------------------------------13------------|
---------------------------------------------14------|
-----------------------------------------------------|
-----------------------------------------------------|

 (Am)
-----------------------------------------------------|
-----------------------------------------------------|
-13(14)----------------------------------------------|
-----------------------------------------------------|
-----------------------------------------------------|
-----------------------------------------------------|
Comments