Moore Gary - Spanish Guitar Chords & Tabs

 

Spanish Guitar Chords & Tabs

Moore Gary Chords & Tabs

Version: 1 Type: Tab 1 rating
1 star 2 stars 3 stars 4 stars 5 stars
comments

Spanish Guitar Tab

Section1
E|------------------------------------------------------------------|
B|------------------------------------------------------------------|
G|----------------------4.-5---------------4------------2-----------|
D|---2.---2-4-5.-2-4-5-------7-5-7.------7.---5-4-5.-5.---4h5p2-4---|
A|-2----2-----------------------------------------------------------|
E|------------------------------------------------------------------|
[ Tab from: http://www.guitartabs.cc/tabs/m/moore_gary/spanish_guitar_tab.html ]
E|-----------------------------------------------------==--|
B|-----------------------------------------------------==--|
G|----------------------4.-5---------4-----------------==--|
D|---2.---2-4-5.-2-4-5------7-5-7.-7.---5-4-5.-4\2---------|
A|-2----2-----------------------------------------2--------|
E|--------------------------------------------------3-0.---|

Thats All I can be bothered to write right now, plus im getting
shouted at by me teacher.
Comments