Moore Gary - Over The Hills Far Away Chords & Tabs

 

Over The Hills Far Away Chords & Tabs

Moore Gary Chords & Tabs

Version: 1 Type: Tab 2 ratings
1 star 2 stars 3 stars 4 stars 5 stars
comments

Over The Hills Far Away Tab

   
================================================================================
         Title : Over the Hills & Far Away
        Artist : Gary Moore
         Album : Wild Frontier
Transcribed by : Robert Grant **WeWantMoore** 01-01-2005
================================================================================

h = hammer-on
p = pull-off
b = bend
r = bend release
/ = slide up/down
Pm = Pinch harmonic
~ = vibrato
v = Vibrato Bar Dips
x = Fret Hand Muting
=
= } = Tremelo Picking

Enjoy :) Need anyhelp or any corrections please mail me at robgrant@gmail.com

===============================================================================



Intro / Main Riff

E|-----------------------------------------------------|-------------------------------------------------|--
B|-----------------------------------------------------|-------------------------------------------------|--
G|-------------------4------5p4---4--------------------|---------------4-----5p4-----4-5-7-5-4-----------|--
D|----4-5-----9-----------------7--------------4-7-5---|-4-5-----9---------------7-7-----------7-5-4-----|--
A|--7-----7-7---7-7----7-7----------7-7-7--5-7-------7-|-----7-7---7-7---7-7-------------------------5/7-|--
E|-----------------------------------------------------|-------------------------------------------------|--




Guitar Solo
   
Ex.1
  E5                                           G5
   V   V   V   V   V   V   V   V   V   V       V   V   V   V   V   V   V   V   V   
E||-------------------------------------------|--------------------------------------------|
B||-------------------------------------------|------------------------------------------0-|
G||-h9-(9)-(9)-(9)-(9)-(9)-(9)-(9)-(9)-(9)p7--|-h7-(7)-(7)-(7)-(7)-(7)-(7)-(7)-(7)/(14)---|
D||-----------------------------------------9-|--------------------------------------------|
A||-------------------------------------------|--------------------------------------------|
E||-------------------------------------------|--------------------------------------------|

  E5

E|--------------------------------------------------------------------------------|--
B|-8p5p0--8p5p0--8p5p0--7p5p0--7p5p0--7p5p0--8p5p0--8p5p0---8p5p0------5h7p5------|--
G|--------------------------------------------------------7--------7p5---------x--|--
D|--------------------------------------------------------------------------------|--
A|--------------------------------------------------------------------------------|--
E|--------------------------------------------------------------------------------|--

  D5                               V   V      E5 
                                              P.M....| P.M....| P.M....| P.M....|
E|------------------------------------------|---------------------------------------|--
B|------------------------------------------|---------------------------------------|--
G|-7-4-5-5-4-7-7-4-5-5-4--------------------|----------4------------------4---------|--
D|-----------------------7-5-7-0x----------|--5----------------5-------------------|--
A|-------------------------------x-h7-(7)---|----7--7-----7--7------7--7-----7--7---|--
E|------------------------------------------|---------------------------------------|--


  G5                                 D5                         E5
   P.M....|P.M....|P.M....|~~~~                                      ~~~~~~~~~
E|----------------------------------|--14--15--17--19--20--22--|--22b-----------------|--
B|-------------------------------0--|--==--==--==--==--==--==--|-------------------x--|--
G|--------4-----7-----9------x--0--|--==--==--==--==--==--==--|-------------------x--|--
D|--5------------------------x-----|--------------------------|----------------------|--
A|-----7-----7-----7----------------|--------------------------|----------------------|--
E|----------------------------------|--------------------------|----------------------|--

Ex.2
    F#5         A5        E5     F#5           E5           A5
                           ~~~~~~~~~~~                         ~~~~~~~~~~~
E|--------------------|----------------------|---------------------------------|--
B|------9--10--12b----|--(12)---------(12)--|-------9--10--12b------------10--|--
G|--11----------------|----------------------|--11-----------------------------|--
D|--------------------|----------------------|---------------------------------|--
A|--------------------|----------------------|---------------------------------|--
E|--------------------|----------------------|---------------------------------|--


    D5                        F#5          A5           E5        F#5
                 ~~~~~                                               ~~~~~~~~~~
E|--------------------------|---------12-------------|---------------------------------|
B|--12b----12b--12---(12)--|------9------12b--------|-------------(12)-------(12)----|
G|--------------------------|--11--------------------|---------------------------------|
D|--------------------------|------------------------|---------------------------------|
A|--------------------------|------------------------|---------------------------------|
E|--------------------------|------------------------|---------------------------------|


   E5          A5              D5           E5
                ~~~~~           ~~~~~~        ~~~~~~
E|-------------12-------10--|--9---------------------||--
B|------9--10---------------|-----------10--12-------||--
G|--11----------------------|------------------------||--
D|--------------------------|------------------------||--
A|--------------------------|------------------------||--
E|--------------------------|------------------------||--



Outro Solo
    F#5           A5               E5               F#5
     slight P.M...................................|   ~~~~~
E|------------------------------|------------------------------------|---
B|------------------------------|------------------------------------|---
G|----------------6------7------|------------------------------------|---
D|--7---------------------------|--7--------------9b--9----9p7-------|---
A|-----9-9-9-9-9-----9-9---9-9--|-----9--9--9--9---------------9--9--|---
E|------------------------------|------------------------------------|---


    E5                 A5                       D5                   E5
[ Tab from: http://www.guitartabs.cc/tabs/m/moore_gary/over_the_hills_far_away_tab.html ]
E|-------------------------------------------|---------------------------------9--12--9--12-|--
B|-------------------------------------------|-----9--10-9h10p9-----9--10--12---------------|--
G|-------------------------------6-6h7p6--9--|--11--------------11--------------------------|--
D|--7-----6--7-6h7p6----6--7--9--------------|----------------------------------------------|--
A|-----9-------------9-----------------------|----------------------------------------------|--
E|-------------------------------------------|----------------------------------------------|--


    F#5              A5          E5             F#5
       ........        ~~~~~~~~~~~~~~~~~
E|--12b--------r(12)-12b------|--(12)---(12)---------14--16----|--
B|----------------------------|----------------/(14)------------|--
G|----------------------------|---------------------------------|--
D|----------------------------|---------------------------------|--
A|----------------------------|---------------------------------|--
E|----------------------------|---------------------------------|--

  
    E5                    A5                  D5                      E5
       ...........
E|--16b(17)-----(16)p14-----------14------|------------------------------------------------------------|--
B|------------------------17b----------17--|--14------------------14-------------------------14h17p14--|--
G|-----------------------------------------|------17--16--14--16------16b--(16)---/16b(17)-------------|--
D|-----------------------------------------|-----------------------------------------------------------|--
A|-----------------------------------------|-----------------------------------------------------------|--
E|-----------------------------------------|-----------------------------------------------------------|--

    F#5                                    A5

E|---------------------------------------------------------------------------------|--
B|------14h17p14-----14h17p14-----14h17p14-----14h17p14-----14h17p14-----14h17p14--|--
G|-16b-----------16b----------16b----------16b----------16b----------16b-----------|--
D|---------------------------------------------------------------------------------|--
A|---------------------------------------------------------------------------------|--
E|---------------------------------------------------------------------------------|--

    E5                                     F#5

E|---------------------------------------------------------------------------------|--
B|------14h17p14-----14h17p14-----14h17p14-----14h17p14-----14h17p14-----14h17p14--|--
G|-16b-----------16b----------16b----------16b----------16b----------16b-----------|--
D|---------------------------------------------------------------------------------|--
A|---------------------------------------------------------------------------------|--
E|---------------------------------------------------------------------------------|--

    E5                            A5                D5                     E5
                                                                             ~~~~~~~      V  V
E|--------------------------------17b(21)----17b--|--17--14------------------------------------|--
B|-------14h17p14-------14h17p14------------------|----------17--14----------------------------|--
G|--16b------------16b ---------------------------|-----------------16b--16--14----(14)-------|--
D|------------------------------------------------|--------------------------------------------|--
A|------------------------------------------------|---------------------------------------h7---|--
E|------------------------------------------------|--------------------------------------------|--

   F#5                 A5                     E5                 F#5
     V  V  V  V  V  V              V  V  V     V  V  V  V         ~~~~~~~~~
E|------------------------------------------|-----------------------------------------|--
B|------------------------------------------|-----------------------------------------|--
G|------------------------------------------|-----------------------------------------|--
D|------------------------/(16)------------|-----------------7-----------------------|--
A|--(7)----------9----------------h7--------|--------------9-----9--------------------|--
E|------------------------------------------|-----------------------------------7--9--|--

    E5                A5                  D5                   E5
    P.M                                                         ~~~~~~~~
E|--------------------------------------|-----------------------------------------|--
B|--------------------------------------|-----------------------------------------|--
G|--------------------------------------|-----------------------------------------|--
D|--------------------------------------|--------7--9b----9--7--9------9---------|--
A|--7--9--------7--9--------7--9--------|--7--9-----------------------------------|--
E|--------7--9--------7--9--------7--9--|----------------------------------0--0---|--

    F#5               A5                 E5             F#5
                                                         ~~~~~~~~~~~~~~
E|-------------------------------------|-----------------------------------------|--
B|-------------------------------------|-----------------------------------------|--
G|-------------------------------------|-------------------------------2---------|--
D|-------------------------------------|-------------2/0------------------4--4---|--
A|----------2--(2)p0--0h(2)-----(2)p0--|--2----2p0-------------------------------|--
E|--0h2--2-----------------------------|-----------------------------------------|--

   E5                 A5                     D5                E5
                                   V  V  V    V  V  V  V  V  V  V  V  V  V  V  V  
E|---------2-------------------------------|--------------------------------------|--
B|------2-----2--5----2--------------------|--------------------------------------|--
G|--4b-------------4b---4b--(4)-2--4-------|-/6-------/7-------/9-------/11-------|--
D|-----------------------------------------|--------------------------------------|--
A|-----------------------------------------|--------------------------------------|--
E|-----------------------------------------|--------------------------------------|--

   F#5               A5                    E5                F#5               Fade Out          
    V  V  V  V  V  V  V  V  V  V  V  V     V  V  V  V  V  V  V  V  V  V  V  V
E|---------------------------------------|---------------------------------------|--
B|-h14----------11------14--------11-----|---14--------11-------14------11-------|--
G|---------------------------------------|---------------------------------------|--
D|---------------------------------------|---------------------------------------|--
A|---------------------------------------|---------------------------------------|--
E|---------------------------------------|---------------------------------------|--





















Comments