Moore Gary - One Day Chords & Tabs

 

One Day Chords & Tabs

Moore Gary Chords & Tabs

Version: 1 Type: Tab 0 ratings
1 star 2 stars 3 stars 4 stars 5 stars
comments

One Day Tab

Gary Moore – One Day 
Tabbed by: Paul Ingebrigtsen
Email: battie87@hotmail.com


Intro:
e-|--------------------------------------------------
B-|---10-12-12(13)---13-15-17-18-13-12-18-17-10-12----
G-|-9-------------------------------------------------
D-|--------------------------------------------------
A-|--------------------------------------------------
E-|--------------------------------------------------


e-|------------10------------------------------------
B-|-13-15-10-9----12(13)-13-15-17-18--13-12-18-17----
G-|--------------------------------------------------
D-|--------------------------------------------------
A-|--------------------------------------------------
E-|--------------------------------------------------


e-|--------------------------------------------------
B-|-10-12-13-15^-12^-10------------------------------
G-|--------------------------------------------------
D-|--------------------------------------------------
A-|--------------------------------------------------
E-|--------------------------------------------------

1. Solo:
e-|--------------------------------------------------
B-|---10-12-12(13)---13-15-17-18-13-12-18-17-10-12----
G-|-9-------------------------------------------------
D-|--------------------------------------------------
A-|--------------------------------------------------
E-|--------------------------------------------------


e-|---------------------------------------------------
B-|-13-17-15-13-12-10---------------------------------
G-|---------------------------------------------------
D-|---------------------------------------------------
A-|---------------------------------------------------
E-|--------------------------------------------------
[ Tab from: http://www.guitartabs.cc/tabs/m/moore_gary/one_day_tab.html ]
Main Solo:
e-|--------------------------------------------------
B-|--------------------------------------------------
G-|-14-17-19-19(21)-19-14-17-17(19)-17-16-0----------
D-|-----------------------------------------10-12----
A-|--------------------------------------------------
E-|--------------------------------------------------


e-|--------------------------------------------------  I dropped the next    
B-|--------------------------------------------------   because it was too
G-|----------------14-14--14-12-9-7-5-2-17(19)-17-19-  difficult. I jumped 
D-|-14h15p14-10-12-----------------------------------  to that after the 
A-|--------------------------------------------------  difficult part.  
E-|--------------------------------------------------




e-|--------------------------------------------------
B-|---13-12-10-----12-10-9-10------------------------
G-|-8-----------7------------------------------------
D-|--------------------------------------------------
A-|--------------------------------------------------
E-|--------------------------------------------------



Ending Solo:


e-|--------------------------------------------------
B-|---10-12-12(13)-13-15-17-18-12-13-15-15(17)-15(17)
G-|-9------------------------------------------------
D-|--------------------------------------------------
A-|--------------------------------------------------
E-|--------------------------------------------------


e-|-----------------------------------------------------
B-|----10-12-12(13)-13-15-17-18----20-18-16(17)-16-(17)-
G-|--9--------------------------16----------------------
D-|-----------------------------------------------------
A-|-----------------------------------------------------
E-|-----------------------------------------------------


e-|--------------------------------------------------
B-|---10-12(13)-12(13)-12(13)------------------------
G-|-9------------------------------------------------
D-|--------------------------------------------------
A-|--------------------------------------------------
E-|--------------------------------------------------


Comments