Moore Christy - Ride On Chords & Tabs

 

Ride On Chords & Tabs

Moore Christy Chords & Tabs

Version: 2 Type: Tab 0 ratings
1 star 2 stars 3 stars 4 stars 5 stars
comments

Ride On Tab

   
From: Shaney - shanestyle@hotmail.com
Subject:Moore Christy

Artist: Christy Moore
Song: "Ride On"
Album: Ride On
Tabbed By: Shane O' Rourke (shanestyle@hotmail.com)

Cm 	x35543
Ab	466544
Bb	113331



PATTERN:
    Cm					   Ab
e:--------3--------3--------3--------3--|--------4--------4--------4--------4--|
B:----4--------4--------4--------4------|----4--------4--------4--------4------|
G:------5--------5--------5--------5----|------5--------5--------5--------5----|
D:--5--------5--------5--------5--------|--6--------6--------6--------6--------|
A:--------------------------------------|--------------------------------------|
E:--------------------------------------|--------------------------------------|
[ Tab from: http://www.guitartabs.cc/tabs/m/moore_christy/ride_on_tab_ver_2.html ]
    Bb					 Cm
e:--------1-------1--------1--------1-|--------3--------3--------3--------3--|
B:----3-------3--------3--------3-----|----4--------4--------4--------4------|
G:------3-------3--------3--------3---|------5--------5--------5--------5----|
D:--3--------3-------3--------3-------|--5--------5--------5--------5--------|
A:------------------------------------|--------------------------------------|
E:------------------------------------|--------------------------------------|

Solo 1 is: 

e---------------------------------------------------------------------
b---------------------------------------------------------------------
g---------------------------2---5--4--5--2----------------------------
d------------------------2-------------------2--0-----------0--2------
a-----------2--0--2--3-----------------------------3--2--3--------0---
e---0/sl/5------------------------------------------------------------ 

Solo 2 is:

[----------------------8~--10-8-10-8---------------------------] 
[--------------------8---------------8-6~----------------------] 
[------------------8-----------------------8-7-8-10-12---------] 
[--5-10~--12-10-12-------------------------------------10~/8~--] 
[--------------------------------------------------------------] 
[--------------------------------------------------------------] 


I Think Solo 1 is more accurate but that's your decision!
Comments