Moonstar 88 - Torete Chords & Tabs

 

Torete Chords & Tabs

Moonstar 88 Chords & Tabs

Version: 9 Type: Tab 0 ratings
1 star 2 stars 3 stars 4 stars 5 stars
comments

Torete Tab

   
torete - moonstar88


pag my comments kayo email nyo lang ako.. what_is_a@yahoo.com. pang 3rd tab
ko na to. madali lang to basta pakinggan nyo nalang ung kanta.

intro:

    D            F#m          Bm         G

E|--2-2-2h3-2------2-2---------2-2---------3-3--3---3---|
B|----3-------3----2-2---------3-3---------3-3----3---0-|
G|-----------------2-2---------4-4---------4-4----------|
D|--0--------------4-4---------4-4---------5-5----------|
A|-----------------4-4--0-1-2--2-2---------5-5----------|
E|---------------2-2-2---------2-2--0-2-3--3-3----------|


    D            F#m          Bm         G

E|--2-2-2h3-2------2-2---------2-2--------3---|
B|----3-------3----2-2---------3-3--------3---|
G|-----------------2-2---------4-4--------4---|
D|--0--------------4-4---------4-4--------5---|
A|-----------------4-4--0-1-2--2-2--------5---|
E|---------------2-2-2---------2-2--0-2---3---|

verse 1:


    D            F#m          Bm         G

E|--222-2h3-2------2-2---------2-2---------3-3--3---3---|
B|--333-------3----2-2---------3-3---------3-3----3---0-|
G|--222------------2-2---------4-4---------4-4----------|
D|-----------------4-4---------4-4---------5-5----------|
A|-----------------4-4--0-1-2--2-2---------5-5----------|
E|---------------2-2-2---------2-2--0-2-3--3-3----------|

"Sandali na lang      Maari bang pagbigyan..."

refrain 1:


    D              F#m          Bm           G

E|--222-2h3-2------222--2---2---222--2---2---333--3---3---|
B|--333-------3----222----2-----333----3-----333----3---0-|
G|--222------------222----------444----------444----------|
D|-----------------444----------444----------555----------|
A|-----------------444----------222----------555----------|
E|-----------------222----------222----------333----------|

"Wag kang mag-alala    Di ko ipipilit sa 'yo..."


verse 2:
[ Tab from: http://www.guitartabs.cc/tabs/m/moonstar_88/torete_tab_ver_9.html ]
D       F#m                  Bm        G
Ilang gabi pa nga lang  Nang tayo'y pinagtagpo
D               F#m      Bm                G
Na parang may tumulak  Nanlalamig, nanginginig na ako
D             F#m    Bm          G
Akala ko nung una  May bukas ang ganito
D             F#m           Bm               G
Mabuti pang umiwas   Pero salamat na rin at nagtagpo


Chorus:

   D      F#m     Bm   G
Torete, torete, torete ako
   D      F#m     Bm      G
Torete, torete, torete sa 'yo


Refrain 2:

D            F#m    Bm       G
Wag kang mag-alala  Di ko ipipilit sa 'yo
D        F#m         Bm           G
Kahit na lilipad ang isip ko'y torete sa 'yo


 D      F#m     Bm   G
Torete, torete, torete ako
   D      F#m     Bm   G
Torete, torete, torete ako


adlib:


e|------------------------------------------------------------------|
B|---------12-11-12-11--9-7-----------------------------------------|
G|------11-----------------------11-11-11-9-8--8h9-8h9-8h9-8-8h11---|
D|--9-9----------------------9-9------------------------------------|
A|------------------------------------------------------------------|
E|------------------------------------------------------------------|

e|------------------------------------------------------------------|
B|---------12-11-12-11--9-7-----------------------------------------|
G|------11-----------------------11-11-11-9-8--8h9-8h9-8h9-8-8-8h11-|
D|--9-9----------------------9-9------------------------------------|
A|------------------------------------------------------------------|
E|------------------------------------------------------------------|

chorus:

  D      F#m     Bm   G
Torete, torete, torete ako
   D      F#m     Bm      G
Torete, torete, torete sa 'yo
Comments