Moonstar 88 - Torete Chords & Tabs

 

Torete Chords & Tabs

Moonstar 88 Chords & Tabs

Version: 10 Type: Tab 0 ratings
1 star 2 stars 3 stars 4 stars 5 stars
comments

Torete Tab

   
Intro:
   D                     A            Bm                 G
e|-2-2--2h3-3---0h2p0---------------------5-5---------0--------3-----3--
B|--------------------3----2-2-2--------3-3-3---2h3p2--------3---3-----|
G|-------------------------2-2-2--------4-4-4--------------0-0-----0---|
D|-0----0-----0------------2-2-2--------4------------------0-0---------|
A|-----------------------0--------0-1-2-------2------------2-----------|
E|-------------------------------------------------------3-------------|
   D                     A            Bm           G
e|-2-2--2h3-3---0h2p0---------------------2-2------3-|
B|--------------------3----2-2-2--------3-3-3------3-|
G|-------------------------2-2-2--------4-4-4------0-|
D|-0----0-----0------------2-2-2--------4-4-4------0-|
A|-----------------------0--------0-1-2---2-2--2-0-2-|
E|-------------------------------------------------3-|

Buong Song:
D-A-Bm-G
(na may extrang power chords)
[ Tab from: http://www.guitartabs.cc/tabs/m/moonstar_88/torete_tab_ver_10.html ]
Solo:
e|--------9-9-9h10-9-7-------------------------------------------|
B|---8/10--------------10----8/10--8-8-8p7-7-7h8-8-8h10-10-8p7---|
G|-7-----------------------7-----------------------------------9-|
D|---------------------------------------------------------------|
A|---------------------------------------------------------------|
E|---------------------------------------------------------------|

e|--------9-9-9h10-9----------------------------------------------|
B|---8/10------------12*\-10\-3-3/10-10--10p8-7-7-7h8-7-7h8-7-7h8-|
G|-7--------------------------------------------------------------|
D|----------------------------------------------------------------|
A|----------------------------------------------------------------|
E|----------------------------------------------------------------|

*\ = pause then slide down
/ = slide up
h = hammer-on
p = pull-off

Outro:
e|--------9-9-9h10-9-10/12-10----------------|
B|---8/10------------------------8/10--8-7---|
G|-7---------------------------7-----------7-|
D|-------------------------------------------|
A|-------------------------------------------|
E|-------------------------------------------|
Comments