Moonstar 88 - Torete Chords & Tabs

 

Torete Chords & Tabs

Moonstar 88 Chords & Tabs

Version: 1 Type: Tab 0 ratings
1 star 2 stars 3 stars 4 stars 5 stars
comments

Torete Tab

   

 torete 
 by moonstar 88
 tabbed by jobo kapunan a.k.a jobski
 e-mail: jobo@bul.info.com.ph

			


	TORETE : main chord progression throughout the song "D-Dsus-F3m-Bm7-G" just change the strumming style



	INTRO: play the said chords while another guitar plays the tab


		D
[ Tab from: http://www.guitartabs.cc/tabs/m/moonstar_88/torete_tab.html ]
	e|--2-2----2h3--2--------------------------------|
	B|-----------------------------------------------|
	G|-----------------------------------------------|
	D|--0---0--0-------------------------------------|
	A|-----------------------------------------------|
	E|-----------------------------------------------|


		F#m

	e|------2-----2----------------------------------|
	B|------2-----2----------------------------------|
	G|-----------------------------------------------|
	D|-----------------------------------------------|
	A|-----------------------------------------------|
	E|-0-2-----2-------------------------------------|
		

		Bm7

	e|------------2-----7----3h4p2h3p0---------------|
Comments