Moonstar 88 - Torete Chords & Tabs

 

Torete Chords & Tabs

Moonstar 88 Chords & Tabs

Version: 1 Type: Bass Tab 0 ratings
1 star 2 stars 3 stars 4 stars 5 stars
comments

Torete Bass Tab

song:torete
artist:moonstar 88
tabber: kris_khat07@yahoo.com

enter when you hear the lead guitar, drums and together with this bass.

G|---------------------------|
D|---------------------------|
A|-5-5~---------2-2~---------|
E|--------2-2~--------3-3~---|

do this this before the chorus. just find how many times you have to repeat.
[ Tab from: http://www.guitartabs.cc/tabs/m/moonstar_88/torete_btab.html ]
G|---------------------------|
D|---------------------------|
A|-5------2------------------|
E|----2------3-3s8-----------|

chorus: just do the bass of these chords: D-F#-B-G, just find how many you
should repeat each. this my first time to make tabs so please rate this.
thanks, god speed, if there are corrections, e-mail me at kris_khat07@yahoo.com,
i have account in friendster. thanks, rate this please.......
Comments