Moonstar 88 - Sa Langit Chords & Tabs

 

Sa Langit Chords & Tabs

Moonstar 88 Chords & Tabs

Version: 4 Type: Tab 0 ratings
1 star 2 stars 3 stars 4 stars 5 stars
comments

Sa Langit Tab

SA LANGIT
Moonstar 88
BY: Jeramie Lim
date created: june 05, 2005

eto ang kaunaunahang tab na naisubmit ko sa site na to. sinubukan kong pagsabayin ang 
sa intro... try nyo masarap

tugtugin pag nagawa nyo ng tama.


INTRO

E-----2-2/3----|
B--------------|
G---2----------|
D--0-----------|
A--------------|  2x
E--------------|
[ Tab from: http://www.guitartabs.cc/tabs/m/moonstar_88/sa_langit_tab_ver_4.html ]
E----2-----2---------0-0-----2p--2------2-----2-3-2------3h2--0-----------2-----------------|
B-3-3--3--3----3---3--3--------3------3------3-------------------3-3-3---3------3-3h2-------|
G--2-----0----0-------------2-------2-------2----------2--------2-------2------2------2h4---|
D-0------------------------0----------------------------------0-----------------------------|
A-------------------------------------------------------------------------------------------|
E------0----2--------3-----------0--------2-----3--------------------0-------2--------------|

E----2--------0---2-5-2h0-------------|
B-3-3--3--3--3-3-----------3----------|
G--2-----0----------------------------|
D-0------------------------0----------|
A-------------------------------------|
E------0-----2----3-------------------|

practise lang at makukuha nyo rin to! ;)


eto ang tab for the whole song simula verse hanggang katapusan ng kanta paulit ulit lang

E-------2-3-----3-----2----3------------|
B--------------3-----3----3-------------|
G-----2-------0-----0----0--------------|
D----0----------------------------------|
A---------------------------------------|
E-----------0-----2----3----------------|

thank you nga pala ke caren umali, kundi dahil sa tab nya hindi ko makukuha ang kantang 
thank you!!!
Comments