Moonstar 88 - Sa Langit Chords & Tabs

 

Sa Langit Chords & Tabs

Moonstar 88 Chords & Tabs

Version: 3 Type: Tab 0 ratings
1 star 2 stars 3 stars 4 stars 5 stars
comments

Sa Langit Tab

   
SA LANGIT
Moonstar 88
Transcribed by: howDEE
BY: caren umali

First time kong magsubmit ng tab. And im sure na tamang tama yan.
Para yan sa F-A-T-A-L-F-L-I-P-S! sa barkada ko. Ang favorite song nating tugtugin. Sana magustuhan nyo. 
lang yan


Chords used

    D     Dsus   Em     F#m     G
E|--2------3------3------3------3-|
B|--3------3------3------3------3-|
G|--2------2------0------0------0-|
D|--0------0------2------2------0-|
A|----------------2------0------2-|
E|----------------0------2------3-|
ganyan lang ang chords na gagamitin sa buong kanta.


INTRO 1

E-----2-2/3----|
B--------------|
G---2----------|
D--0-----------|
A--------------|  2x
E--------------|

INTRO 2
[ Tab from: http://www.guitartabs.cc/tabs/m/moonstar_88/sa_langit_tab_ver_3.html ]
     1     2   3     4           5      6    7     8
E----3-----3---------3----------2-3-----3----------3------------|
B---3-----3----3----3------------------3-----3----3-------------|
G--2-----0----0----0----2x----2-------0-----0----0--------------|
D-0--------------------------0----------------------------------|
A---------------------------------------------------------------|
E------0----2----3------------------0-----2----3----------------|

yung chords 4,5,6 & 7, yan na yung tutugtugin throughout the song. Mapa chorus man o pre-chorus, yan pa rin.


GUITAR DURING intro2
SOLO:
E--------------------------------------------------|
B---3/2-------3--3----3-5-3-5-3---7-7---7-8-7------|
G-------2-4----------------------------------------|
D--------------------------------------------------|
A--------------------------------------------------|
E--------------------------------------------------|

E--------------------------------------5--------------|
B---8/7--5--3-3---3/2-------3h5h3?5h7-----7--5--3-----|
G---------------------2-4-----------------------------|
D-------------------------0---------------------------|
A-----------------------------------------------------|
E-----------------------------------------------------|

That?s all! Sana mag enjoy kayo habang tumutugtog!
Need more moonstar88 tabs? Email me: www.sw00sh@freemail.ph
Comments