Moonstar 88 - Migraine Chords & Tabs

 

Migraine Chords & Tabs

Moonstar 88 Chords & Tabs

Version: 3 Type: Tab 0 ratings
1 star 2 stars 3 stars 4 stars 5 stars
comments

Migraine Tab

   
Title: Migraine	
Artist:Moonstar88
Album: Todo Combo 
Tabbed by:Charles Quilang
School:Pateros Catholic School (IV-St.Augustin 2008-09)
For any comments and Suggestion:

Text Me: 09217154686
YM koh:charles_quilang@yahoo.com

       Ganda ng song na to haha...may nag request kc... eto na.. =D
                          
Tune Your Guitar at : www.howtotuneaguitar.org this is d best!
Tuning: Standard


HINT:Sabayan nyo ung song para ma ka sabay din kyo...
     PLEASE RATE MY TAB! I hope this is correct.


Intro:


e-----------------------------------|-----------------------------------------|
b-----------------------------------|-----------------------------------------|
g--7779991010-14141414-16-10101010--|-7779991111-1414141--1616-12121212-11-12-|
D--7779991010-14141414-16-10101010--|-7779991111-14141414-1616-12121212-11-12-|
A--5557779999-12121212-14-9999999---|-5557779999-12121212-1414-10101010-9--10-|
E-----------------------------------|-----------------------------------------|


Verse 1:

"Palm Mutting d2"....
     Oo nga pala?.. hindi nga pala tayo.....Hanggang dito lang ako,nangangarap na mapa-sayo..
e--------------------------------------------------------------|
b--------------------------------------------------------------|
g-777777777777777444444444444444-------------------------------|
D-777777777777777444444444444444-4444444444444455555555555555--|
A-555555555555555222222222222222-4444444444444445555555555555--|
E--------------------------------2222222222222223333333333333--|


    Hindi sinasadya..... Na hanapin pa ang lugar ko Asan nga ba ako? andiyan pa ba sa iyo?
e---------------------------------------------------------------3---|
b---------------------------------------------------------------3---|
g-777777777777777444444444444444--------------------------------0---|
D-777777777777777444444444444444-4444444444444455555555555555---0---|
A-555555555555555222222222222222-4444444444444455555555555555---2---|
E--------------------------------2222222222222223333333333333---3---|



Chorus:

   Nahihilo......Nalilito....Asan ba ko sayo? aasa ba ko sayo?
e--------------------------------------------------------------|
b--------------------------------------------------------------|
g-777777777777777444444444444444-------------------------------|
D-777777777777777444444444444444-4444444444444455555555555555--|
A-555555555555555222222222222222-4444444444444445555555555555--|
E--------------------------------2222222222222223333333333333--|


Verse 2:
 Nasusuka ako...  Kinakain na ang loob..Masakit ng mga tuhod.. kailangan bang lumuhod....
e--------------------------------------------------------------|
b--------------------------------------------------------------|
g-777777777777777444444444444444-------------------------------|
D-777777777777777444444444444444-4444444444444455555555555555--|
A-555555555555555222222222222222-4444444444444445555555555555--|
E--------------------------------2222222222222223333333333333--|

   Gusto ko lang naman... Yung totoo.....Ung tipong ang sagot ay hindi rin isang tanong..
e--------------------------------------------------------------|
b--------------------------------------------------------------|
g-777777777777777444444444444444-------------------------------|
D-777777777777777444444444444444-4444444444444455555555555555--|
A-555555555555555222222222222222-4444444444444445555555555555--|
E--------------------------------2222222222222223333333333333--|


Chorus:
[ Tab from: http://www.guitartabs.cc/tabs/m/moonstar_88/migraine_tab_ver_3.html ]
   Nahihilo......Nalilito....Asan ba ko sayo? aasa ba ko sayo?
e--------------------------------------------------------------|
b--------------------------------------------------------------|
g-777777777777777444444444444444-------------------------------|
D-777777777777777444444444444444-4444444444444455555555555555--|
A-555555555555555222222222222222-4444444444444445555555555555--|
E--------------------------------2222222222222223333333333333--|


   Nahihilo......Nalilito....Asan ba ko sayo? aasa ba ko sayo?
e--------------------------------------------------------------|
b--------------------------------------------------------------|
g-777777777777777444444444444444-------------------------------|
D-777777777777777444444444444444-4444444444444455555555555555--|
A-555555555555555222222222222222-4444444444444445555555555555--|
E--------------------------------2222222222222223333333333333--|





Bridge:
  
  D         Bm     F#m         G
Dahil..... di na.makatulog (makatulog)

  D       Bm       F#m          G
Dahil......Hindi na makakain (makakain)

Dahil.hindi na makatawa (makatawa)

e-----------------------------------------------------|
b-----------------------------------------------------|
g-7777777777--9999999999--111111111--121212121212-----|
D-xxxxxxxxxx--xxxxxxxxxx--xxxxxxxxx--xxxxxxxxxxxx-----|
A-5555555555--7777777777--99999999---101010101010-----|
E-----------------------------------------------------|

Dahil hindi..na.....ahhhh…

e-------------------------------------------|
b-------------------------------------------|
g-7777777777--9999999999--11111111111--12---|
D-xxxxxxxxxx--xxxxxxxxxx--xxxxxxxxxxx--xx---|
A-5555555555--7777777777--9999999999---10---|
E-------------------------------------------|


Biglang....


     Oo nga pala?.. hindi nga pala tayo.....Hanggang dito lang ako....
e--------------------------------------------------------------|
b--------------------------------------------------------------|
g-777777777777777444444444444444-------------------------------|
D-777777777777777444444444444444-4444444444444455555555555555--|
A-555555555555555222222222222222-4444444444444445555555555555--|
E--------------------------------2222222222222223333333333333--|

Sabay mo ung lead na..... 

e-14------|
b----15---|
g-14------|
D---------|
A---------|
E---------|


(3;17)
CHORUS ULIT!!!!

(3;33)
TAPOS ISA PA!!!!

(3;49)
CHORUS NA MABAGAL.... ung (nahihilo.... ohohoho wooo woo...)

(4:06)
TAPOS ETO...
Nahihilo....
e--------------------------------------------------------------|
b--------------------------------------------------------------|
g-777777777777777444444444444444-------------------------------|
D-777777777777777444444444444444-4444444444444455555555555555--|
A-555555555555555222222222222222-4444444444444445555555555555--|
E--------------------------------2222222222222223333333333333--|


Eto ung lead Guitar2(kyo na bahala kung san nyo sakto at kung ilan beses) basta eto un!

e-12-10----10-10--12-10----10--10---12--10----10--10-12-10----10-12--15-|
b-------12--------------12-----------------12--------------12-----------| END!
g-----------------------------------------------------------------------|
D-----------------------------------------------------------------------|
A-----------------------------------------------------------------------|
E-----------------------------------------------------------------------|

Comments