Moonstar 88 - Fall On Me Chords & Tabs

 

Fall On Me Chords & Tabs

Moonstar 88 Chords & Tabs

Version: 1 Type: Tab 0 ratings
1 star 2 stars 3 stars 4 stars 5 stars
comments

Fall On Me Tab

e: --------7-------6--6---7--7----------------------------|
B: -4h5------------7--7---7--7------5---------------------|
G: -4--------------6--6---8--8------4---------------------|
D: -4--6-----------8--8---9--9------6---------------------|
A: -4-----------0--6--6---7--7------4---------------------|
E: -------------------------------------------------------|
[ Tab from: http://www.guitartabs.cc/tabs/m/moonstar_88/fall_on_me_tab.html ]
e: -------7---------6-6---7-7--------5---------------------------|
B: --4h5------------7-7---7-7--------5---------------------------|
G: --4--------------6-6---8-8--------6---------------------------|
D: --4--------------8-8---9-9--------5---------------------------|
A: --4---6-------0--6-6---7-7--------7---------------------------|
E: -------------------------------0--5---------------------------|

ewan ko lang kung tama to.. try lang!!
Comments