Moonstar 88 - Di Kasi Chords & Tabs

 

Di Kasi Chords & Tabs

Moonstar 88 Chords & Tabs

Version: 1 Type: Bass Tab 0 ratings
1 star 2 stars 3 stars 4 stars 5 stars
comments

Di Kasi Bass Tab

Di Kasi- MigraiNe
bass tab By The Bassist Of "This Band" Of Liceo de Cabuyao

Intro
G|---------------------------------------------------------------------------|
D|--------------------------------8------------------------------------------|
A|-----------8-8-8-8---------8-810-108-------8-8-1012108-2-4-5-7-------------|x2
E|---5-5-5-5---------5-5-5-5----------5-5-5-5--------------------------------|

Verse
G|-------------------------------------------------------------------------|
D|-------------------------------------------------------------------------|
A|----------8~----2~-----6-5--------8~----2~----66-55----------------------|
E|---5~-----------------------5~-------------------------------------------|

G|-------------------------------------------------------------------------|
D|-------------------------------------------------------------------------|
A|-----------8-8-8-8-2-2-2-2-66-55---------8-8-8-8-2-2-2-2-6-55------------|
E|---5-5-5-5-----------------------5-5-5-5---------------------------------|

Chorus
G|---------------------------------------------------------------------------|
D|---------------------------------------------------------------------------|
A|------------888888888-22222222-6666-5555----------88888888-222444555777----|x2
E|---555555555------------------------------55555555-------------------------|

(repeat intro x1)

2nd verse
G|-------------------------------------------------------------------------|
D|-------------------------------------------------------------------------|
A|----------8~----2~-----6-5-----------------------------------------------|
E|---5~--------------------------------------------------------------------|

G|-------------------------------------------------------------------------|
D|-------------------------------------------------------------------------|
A|-----------8-8-8-8-2-2-2-2-66-55---------8-8-8-8-2-2-2-2-6-55------------|
E|---5-5-5-5-----------------------5-5-5-5---------------------------------|

[ Tab from: http://www.guitartabs.cc/tabs/m/moonstar_88/di_kasi_btab.html ]
Adlib
G|---------------------------------------------------------------------------|
D|--------------------------------8------------------------------------------|
A|-----------8-8-8-8---------8-810-108-------8-8-1012108-2-4-5-7-------------|x2
E|---5-5-5-5---------5-5-5-5----------5-5-5-5--------------------------------|

Bridge
G|---------------------------------------------------------------------------|
D|--------------------------------8------------------------------------------|
A|-----------8-8-8-8---------8-810-------------------------------------------|x3
E|---5-5-5-5---------5-5-5-5-------------------------------------------------|

G|-------------------------------------------------------------------------|
D|-------------------------------------------------------------------------|
A|-----------9-9-9-9-9-9-9 (break)-----------------------------------------|
E|---5-5-5-5---------------------------------------------------------------|
(rest)

Last chorus
(Ayoko lang magisa…)
G|-------------------------------------------------------------------------|
D|-------------------------------------------------------------------------|
A|----2222-4444-5555-7777--------------------------------------------------|
E|-------------------------------------------------------------------------|

G|---------------------------------------------------------------------------|
D|---------------------------------------------------------------------------|
A|------------888888888-22222222-6666-5555----------88888888-222444555777----|x2
E|---555555555------------------------------55555555-------------------------|

Instrumental
G|---------------------------------------------------------------------------|
D|---------------------------------------------------------------------------|
A|--7-7-7-7-7-7-7-7-5-5-5-5-5-5-5-5-4-4-4-4-4-4-4-4-2-2-2-2-2-2-2-2----------|x2
E|-------------------------------------------------------------(bass slide---|

G|-------------------------------------------------------------------------|
D|-------------------------------------------------------------------------|
A|--2-2-2-2-2-2-2-2-4-4-4-4-4-4-4-4-5-5-5-5-5-5-5-5-7-7-7-7-7-7-7-7-|x4-0~-|
E|-------------------------------------------------------------------------|

The End..Hope you Like It…Kapa lan Pu Yan Eh…
Comments