Moonstar 88 - Bata Chords & Tabs

 

Bata Chords & Tabs

Moonstar 88 Chords & Tabs

Version: 1 Type: Tab 0 ratings
1 star 2 stars 3 stars 4 stars 5 stars
comments

Bata Tab

Bata by moonstar 88
Tabbed by: mykell
Oi i2 ung first tym kong magtab kaya sigurado akong 100% tama yan.. kaso intro pa lang 
e-mail nyo na lang ako kung alm nyo na ang verse at chorus para naman pareho tayong 
dba.. tnx... ok.. hehe..
e-addè myk_boxcar@yahoo.com

intro    (overdrive)
E    ------------------------------------------------------------------|
B    ------------------------------------------------------------------|
G    --------7---------------------------------------------------------|
D    ------------------7h9---9------7h9---7----------------------------|
A    ---5------7h9-------------9---------------------------------------|
E    ------------------------------------------------------------------|

[ Tab from: http://www.guitartabs.cc/tabs/m/moonstar_88/bata_tab.html ]
E    ------------------------------------------------------------------|
B    ------------------------------------------------------------------|
G    --------7---------------------------------------------------------|
D    ------------------7h9---9---7b------------------------------------|
A    ----5------7h9--------------------9/ 7----------------------------|
E    ------------------------------------------------------------------|

E    ------------------------------------------------------------------|
B    ------------------------------------------------------------------|
G    -------7----------------------------------------------------------|
D    -------------------7h9---9------7h9---7---------------------------|
A    ---5------7h9---------------9-------------------------------------|
E    ------------------------------------------------------------------|

E    ------------------------------------------------------------------|
B    ------------------------------------------------------------------|
G    --------7---------------------------------------------------------|
D    --------------------7h9-(break)-----------------------------------|
A    ---5--------7h9---------------------------------------------------|
E    ------------------------------------------------------------------|
Comments