Moonspell - Ruin And Misery Chords & Tabs

 

Ruin And Misery Chords & Tabs

Moonspell Chords & Tabs

Version: 1 Type: Tab 0 ratings
1 star 2 stars 3 stars 4 stars 5 stars
comments

Ruin And Misery Tab

Moonspell
	Ruin & Misery




And another one from their website woohoo that's 4 in a row, www.moonspell.fr.st

VERSE 1:

  (keyboard & vocals)


CHORUS:

  (Rhy.Fig.1)
e|----------------------------------------------------------------------------|
B|----------------------------------------------------------------------------|
G|---2-----------2p0h2-----2p0h2---2p0h2p0h2--------3--3/5--------------------|
D|---0---0-0-0-0-0-(0)-0-0-0-(0)-0-0-(0)-(0)-----3----------------5-----5/7---|
A|--------------------------------------------1----------------5-----5--------|
E|----------------------------------------------------------3-----------------|
   dist. gtr.
         p.m----       p.m       *

or

e|----------------------------------------------------------------------------|
B|----------------------------------------------------------------------------|
G|----------------------------------------------------------------------------|
D|---7-----------7p5h7-----7p5h7---7p5h7p5h7--------8--8/10-------5-----5/7---|
A|---5---5-5-5-5-5-(5)-5-5-5-(5)-5-5-(5)-(5)-----8-------------5-----5--------|
E|--------------------------------------------6-------------3-----------------|
   dist. gtr.
         p.m----       p.m       *


  repeat Rhy.Fig.1      (3 times)


VERSE 2:

e|-----------------------|
B|----3------------------|
G|----2------------------|   let sound until faded away.
D|----0------------------|
A|-----------------------|
E|-----------------------|

  (keyboard, drums & vocals)



CHORUS:

   play Rhy.Fig.1       (2 times)


BRIDGE:

e|-----------------------------------------------------------------------|
B|-----------------------------------------------------------------------|
G|---2-(2)--------------------------------------------3-(3)--------------|
D|---0-(0)--0--0--0--0--0--0--0--0--0--0--0--0--0--0--3-(3)--------------|
A|----------------------------------------------------1-(1)-1--1--1--1---|
E|-----------------------------------------------------------------------|
           p.m-- - - - - - - - - - - - - - - - - - -|      p.m-- - - -


e|-----------------------------------------------------------------------|
B|-----------------------------------------------------------------------|
G|------------------------------------------------------2-(2)------------|
D|-------------------------------3-(3)------------------2-(2)------------|
A|-1--1--1--1--1--1--1--1--1--1--3-(3)------------------0-(0)-0--0--0--0-|
E|-------------------------------1-(1)-1--1--1--1--1--1------------------|
  - - - - - - - - - - - - - -|        p.m - - - - - -|       p.m - - - -

[ Tab from: http://www.guitartabs.cc/tabs/m/moonspell/ruin_and_misery_tab.html ]
e|---------------------------------------------------------------------|
B|---------------------------------------------------------------------|
G|--------2-(2)--------------2--1h2p1----1-----------------------------|
D|--------0-(0)-0--0--0--0-------------3---3-2-0--3-2-0----------------|
A|--0--0------------------------------------------------0--------------|
E|---------------------------------------------------------------------|
   - - -|      p.m- - - -|                            



e|---------------------------------------------------------------------|
B|--------1-----1----------------1-----1---------------1----1----------|
G|-----2-----2-----2----------2-----2-----2----------2---2-----2-------|
D|--0-----------------0----------------------0--------------------0----|
A|-------------------------1-------------------------------------------|
E|-----------------------------------------------1---------------------|
  clean gtr.    let ring


e|---------------------------------------------------------------------|
B|----------1------1-----------------1---------------------------------|
G|-------2-----2------2-----------2-----2------------------------------|
D|-----------------------0-----0-----------0---------------------------|
A|----0----------------------------------------------------------------|
E|---------------------------------------------------------------------|



CHORUS:

  (keyboard, drums & vox)


OUTRO:

  (Rhy.Fig.2)
e|----5-----5-----5---6-----5-----8---5-----5-----5---6-----5----------|
B|------8-----8-----8---8-----8-----8---8-----8-----8---8-----8--------|
G|--------7-----7---------7-----7---------7-----7---------7-----7------|
D|---------------------------------------------------------------------|
A|---------------------------------------------------------------------|
E|---------------------------------------------------------------------|
  clean gtr.   let ring

   (End Rhy.Fig.2)
e|----5h6p5----|--5-----5-----5---6-----5-----5---5-----5-6-----5------|
B|----------8--|----8-----8-----8---8-----8-----8---8-------8-----8----|
G|-------------|------7-----7---------7-----7---------7-------7-----7--|
D|-------------|-------------------------------------------------------|
A|-------------|-------------------------------------------------------|
E|-------------|-------------------------------------------------------|



e|---5h6p5-----|
B|---------8---|
G|-------------|
D|-------------|
A|-------------|
E|-------------|


  play Rhy.Fig.2      (2 times)



CHORUS:

  play Rhy.Fig.1        (4 times)



OUTRO:

e|--------------||
B|--------------||
G|---2----------||  let sound until faded out
D|---3----------||
A|--------------||
E|--------------||
  dist. gtr.
Comments