Moonspell - In And Above Men Chords & Tabs

 

In And Above Men Chords & Tabs

Moonspell Chords & Tabs

Version: 1 Type: Bass Tab 0 ratings
1 star 2 stars 3 stars 4 stars 5 stars
comments

In And Above Men Bass Tab

   
D|---------------------------------------------------------------------------|
A|---------------------------------------------------------------------------|
E|-0-0-0-0-0-0-0-0-0-0-0-0-0-0-0-0-0/-7-7-7\-5-5-5/-8-8-0-0-0-0-0-0-0-1-0-0--|

G|---------------------------------------------------------------------------|
D|---------------------------------------------------------------------------|
A|---------------------------------------------------------------------------|
E|-1-0-0-0-------------------------------------------------------------------|


		Chorus


G|---------------------------------------------------------------------------|
D|---------------------------------------------------------------------------|
A|---0---------0---------0---------------------------------------------------|
E|-0---1--4--0---1--4--0---1--4-3--0-0--x3-x2-x0-x1-x2-x3--1-x-x-1-x-0-------|

		Bridge
[ Tab from: http://www.guitartabs.cc/tabs/m/moonspell/in_and_above_men_btab.html ]
G|---------------------------------------------------------------------------|
D|---------------------------------------------------------------------------|
A|---------------------------------------------------------------------------|
E|--0-0-x3-x2-x0-x2-x3-0-0-x3-x2-x0-x2-x3-x2-x0-x2-x3-x2-x0-x2-x3-x2-x0-0-x-x|

G|---------------------------------------------------------------------------|
D|---------------------------------------------------------------------------|
A|---------------------------------------------------------------------------|
E|-1-x-x-1-x-x-0-------------------------------------------------------------|

		Outro

G|---------------------------------------------------------------------------|
D|---------------------------------------------------------------------------|
A|---------------------------------------------------------------------------|
E|-0-0-0/-5-5-4-4-4-4-4-0-0-0/-5-5-4-4-4-4-4-4-------------------------------|


And that's all ! Bass tab is good , I play it this way ans evrything sounds perfect , I 
I just didnt made mistakes
in writing it down...

My 2nd Monnspell tab !! AT LAST MORE MOONSPELL !!!


| /  slide up
| \  slide down
| h  hammer-on
| p  pull-off
| ~  vibrato
| +  harmonic
| x  Mute note
===============================================================================
Comments