Moonspell - 2nd Skin Chords & Tabs

 

2nd Skin Chords & Tabs

Moonspell Chords & Tabs

Version: 1 Type: Tab 0 ratings
1 star 2 stars 3 stars 4 stars 5 stars
comments

2nd Skin Tab

TypeONegative by Connect | http://typeonegative.w.interia.pl www.ton.oz.pl

Intro/ Riff 1 w/ wah

E----------------------------------------------------------|
B---5---5-7p5-4-5p4--5---5-7p5-4-5p4/2---------------------|
G-----7----------------7---------------5p4/2-4-2?5p4/2-4-2-|
D----------------------------------------------------------|
A----------------------------------------------------------|
E----------------------------------------------------------|

E----------------------------------------------------------|
B---5---5-7p5-4-5p4--5---5-7p5-4-5p4/2?6p5/3-5-3-4-5p4---5-|
G-----7----------------7-------------------------------7---|
D----------------------------------------------------------|
A----------------------------------------------------------|
E----------------------------------------------------------|

Riff 2
E----------------------------------------------|
B----------------------------------------------|
G--------------------------5-5-5-5-------------|
D-4-4-4-4-4-4-4-4-4-4-4-4--5-5-5-5-------------|
A-4-4-4-4-4-4-4-4-4-4-4-4--3-3-3-3-------------|
E-0h2-0h2-0h2-0h2-0h2-0h2----------------------|

Riff 3
E----------------------------------------------|
B----------------------------------------------|
G-4-4-4-4-4-4-4-4-4-4-4-4--12-12-12-12---------|
D-4-4-4-4-4-4-4-4-4-4-4-4--12-12-12-12---------|
A-0h2-0h2-0h2-0h2-0h2-0h2--10-10-10-10---------|
E----------------------------------------------|


Riff 2
E----------------------------------------------|
B----------------------------------------------|
G--------------------------5-5-5-5-------------|
D-4-4-4-4-4-4-4-4-4-4-4-4--5-5-5-5-------------|
A-4-4-4-4-4-4-4-4-4-4-4-4--3-3-3-3-------------|
E-0h2-0h2-0h2-0h2-0h2-0h2----------------------|


Intro/ Riff 1 w/ wah

E----------------------------------------------------------|
B---5---5-7p5-4-5p4--5---5-7p5-4-5p4/2---------------------|
G-----7----------------7---------------5p4/2-4-2?5p4/2-4-2-|
D----------------------------------------------------------|
A----------------------------------------------------------|
E----------------------------------------------------------|

E----------------------------------------------------------|
B---5---5-7p5-4-5p4--5---5-7p5-4-5p4/2?6p5/3-5-3-4-5p4---5-|
G-----7----------------7-------------------------------7---|
D----------------------------------------------------------|
A----------------------------------------------------------|
E----------------------------------------------------------|

[ Tab from: http://www.guitartabs.cc/tabs/m/moonspell/2nd_skin_tab.html ]
Riff 4
E------------------------------------------------|
B------------------------------------------------|
G--2-------2-------2---2-------2-------2-------2-|
D--2-------2-------2---2-------2-------2-------2-|
A--0-------0-------0---0-------0-------0-------0-|
E----0-0-0---0-0-0---0---0-0-0---0-0-0---0-0-0---|


E------------------------------------------------|
B------------------------------------------------|
G------------------------------------------------|
D--5-------5-------5--3-------3-------3----------|
A--5-------5-------5--3-------3-------3----------|
E--3-3-3-3-3-3-3-3-3--1-1-1-1-1-1-1-1-1----------|


Riff 3
E----------------------------------------------|
B----------------------------------------------|
G-4-4-4-4-4-4-4-4-4-4-4-4--12-12-12-12---------|
D-4-4-4-4-4-4-4-4-4-4-4-4--12-12-12-12---------|
A-0h2-0h2-0h2-0h2-0h2-0h2--10-10-10-10---------|
E----------------------------------------------|

Riff 2
E----------------------------------------------|
B----------------------------------------------|
G--------------------------5-5-5-5-------------|
D-4-4-4-4-4-4-4-4-4-4-4-4--5-5-5-5-------------|
A-4-4-4-4-4-4-4-4-4-4-4-4--3-3-3-3-------------|
E-0h2-0h2-0h2-0h2-0h2-0h2----------------------|


Riff 3
E----------------------------------------------|
B----------------------------------------------|
G-4-4-4-4-4-4-4-4-4-4-4-4--12-12-12-12---------|
D-4-4-4-4-4-4-4-4-4-4-4-4--12-12-12-12---------|
A-0h2-0h2-0h2-0h2-0h2-0h2--10-10-10-10---------|
E----------------------------------------------|


Riff 2
E----------------------------------------------|
B----------------------------------------------|
G--------------------------5-5-5-5-------------|
D-4-4-4-4-4-4-4-4-4-4-4-4--5-5-5-5-------------|
A-4-4-4-4-4-4-4-4-4-4-4-4--3-3-3-3-------------|
E-0h2-0h2-0h2-0h2-0h2-0h2----------------------|


Solo (add in later)

E---------------------------|
B---------------------------|
G---------------------------|
D-4-4-4-4-4-4-4-4-4-4-4-4---|
A-4-4-4-4-4-4-4-4-4-4-4-4---|
E-0h2-0h2-0h2-0h2-0h2-0-----|h2?


Intro/ Riff 1 w/ wah

E----------------------------------------------------------|
B---5---5-7p5-4-5p4--5---5-7p5-4-5p4/2---------------------|
G-----7----------------7---------------5p4/2-4-2?5p4/2-4-2-|
D----------------------------------------------------------|
A----------------------------------------------------------|
E----------------------------------------------------------|

E----------------------------------------------------------|
B---5---5-7p5-4-5p4--5---5-7p5-4-5p4/2?6p5/3-5-3-4-5p4---5-|
G-----7----------------7-------------------------------7---|
D----------------------------------------------------------|
A----------------------------------------------------------|
E----------------------------------------------------------|


E------------------------|
B------------------------|
G--2-------2-------2---2-|
D--2-------2-------2---2-|
A--0-------0-------0---0-|
E----0-0-0---0-0-0---0---|
Comments