Moonspell - 2nd Skin Chords & Tabs

 

2nd Skin Chords & Tabs

Moonspell Chords & Tabs

Version: 1 Type: Bass Tab 0 ratings
1 star 2 stars 3 stars 4 stars 5 stars
comments

2nd Skin Bass Tab

   
-------------------------------------------------------------------------------
			     2econd SKIN - MOONSPELL
-------------------------------------------------------------------------------


Tabbed By : DOOMBASSIST
Tuning: Standard

HI! This is my first tab so if I have any mistakes, I would appreciate it if you tell me!
zero_1942@hotmail.com Send for comments and mistakes
You can paste it every were you want I don't have any problems with this.
Have fun and never give up playing the bass!

Intro x4
G: ------------------------------------------------|
D: ------------------------------------------------|
A -------------------------------------------------|
E:--0h2--0h2--0h2--0h2--0h2--0h2--0h2--0h2---3333--|
[ Tab from: http://www.guitartabs.cc/tabs/m/moonspell/2nd_skin_btab.html ]
Riff 1 x4
G: ----------------------------------------------------------------------------------------|
D: ----------------------------------------------------------------------------------------|
A:--0h2--0h2--0h2--0h2---7-5---0h2--0h2--0h2--0h2---7-5------------------------------------|
E: ---------------------------------------------------------------------33-2-222-33-2-222--|

Riff 2 x4
G: ------------------------------------------------|
D -------------------------------------------------|
A: ------------------------------------------------|
E:--0h2--0h2--0h2--0h2--0h2--0h2--0h2--0h2---3333--|

Riff 3 x4
G: ------------------------------------------------------|
D: ------------------------------------------------------|
A: 0h2--0h2--0h2--0h2--0h2--0h2--0h2--0h2---10-10-10-10--|
E: ------------------------------------------------------|

Riff 4
G: ----------------------------------------------------------|
D: ----------------------------------------------------------|
A: -0--------0---------0----0---------0---------0---------0--|
E: ---0-0-0----0-0-0----0----0-0-0----0-0-0----0-0-0---------|

G: ----------------|
D: ----------------|
A: ----------------|
E: ---3(x9)-1(x9) -|

| h  hammer-on
===============================================================================
Comments