Mooney Suzuki - Alive And Amplified Chords & Tabs

 

Alive And Amplified Chords & Tabs

Mooney Suzuki Chords & Tabs

Version: 2 Type: Tab 0 ratings
1 star 2 stars 3 stars 4 stars 5 stars
comments

Alive And Amplified Tab

   
-------------------------------------------------------------------------------
                    ALIVE AND AMPLIFIED- Mooney Suzuki
-------------------------------------------------------------------------------
Tabbed by:  Ross
 
Thanks to Drew313@hotmail for the solo. I’m working on my own version, but until
then I’m going to give you the one he posted on Ultimate-Guitar.com.  When playing
it I usually just mess around in G-Ionian (major) at the 9th and 12th positions.
 
 
Tuning:  Standard for Rhythm and Lead
 
 
 
Intro – Lead (it sounds good if both guitars play it though, that’s what I do)
 
e|--7------------------------------------------------------------------------|
B|-----10--8-----10--8--------8----------------------------------------------|
G|------------9---------9--7-----9--7-----9--7-------------------------------|
D|-------------------------------------9--------9----7~-----~--~--~--~-------|
A|---------------------------------------------------7~-----~--~--~--~-------|
E|---------------------------------------------------------------------------|
 
 
 
Interlude - Rhythm Guitar         note: the v. are down strokes that you cut off
 
    v    v  ?  v  ?           v.  v.   v    v  ?  v  ?              v.   v.
e|---------------------------------------------------------------------------|
B|--9----9--9--9--9----------10----9----7----7--7--7--7--------------8----7--|
G|--9----9--9--9--9-----------9----9----7----7--7--7--7--------------7----7--|
D|--9----9--9--9--9-----------9----9----7----7--7--7--7--------------7----7--|
A|--7----7--7--7--7-----------7----7----5----5--5--5--5--------------5----5--|
E|---------------------------------------------------------------------------|
    Na  na-na-na-na na na na-na na     Na   na-na-na-na  na na na-na na
 
e|---------------------------------------------------------------------------|
B|--9----9--9--9--9----------10----9----7----7--7--7--7--------------8----7--|
G|--9----9--9--9--9-----------9----9----7----7--7--7--7--------------7----7--|
D|--9----9--9--9--9-----------9----9----7----7--7--7--7--------------7----7--|
A|--7----7--7--7--7-----------7----7----5----5--5--5--5--------------5----5--|
E|---------------------------------------------------------------------------|
    Na  na-na-na-na na na na-na na     Na   na-na-na-na  na na na-na na
 
 
 
Verse 1 – Rhythm Guitar
 
e|---------------------------------------------------------------------------|
B|----(9)---------------------------------(7)--------------------------------|
G|---9-9-9---9---------------------------7-7-7---7---------------------------|
D|---9-9-9---9---------------------------7-7-7---7---------------------------|
A|---7-7-7---7---------------------------5-5-5---5---------------------------|
E|---------------------------------------------------------------------------|
 
Oh  Plug me in and ah turn me on         Listen here, cuz a here it comes
 
e|---------------------------------------------------------------------------|
B|----(9)---------------------------------(7)--------------------------------|
G|---9-9-9---9---------------------------7-7-7---7---------------------------|
D|---9-9-9---9---------------------------7-7-7---7---------------------------|
A|---7-7-7---7---------------------------5-5-5---5---------------------------|
E|---------------------------------------------------------------------------|
 
I got hot lick on your guitar strings     Riffs and rhythms and guitar things    
 
 
Chorus 1
 
Lead - Repeat Main Part 4x, two ‘7’s only a lead in
 
e|-----|---------------------------------7-------7--------------7------------|
B|-7-7-|-8--7-----7--8--7-----7--8-----------10-----8---7-----------10-------|
G|-----|-------9-----------9--------9-----------------------9----------------|
D|-----|---------------------------------------------------------------------|
A|-----|---------------------------------------------------------------------|
E|-----|---------------------------------------------------------------------|
     Turn me on & turn me up & turn me loose  (I am alive & amplified)
 
Rhythm - Repeat 4x (he sometimes only hits the chord once)
 
e|---------------------------------------------------------------------------|
B|---------------------------------------------------------------------------|
G|--5--5---------------------------------9--9------------9--9----------------|
D|--5--5--------------7--7---------------9--9------------9--9----------------|
A|--3--3--------------7--7---------------7--7------------7--7----------------|
E|--------------------5--5---------------------------------------------------|
 
 
 
Post-Chorus
 
e|---------------------------------------------------------------------------|
B|--9----9--9--9--9----------10----9----7----7--7--7--7--------------8----7--|
G|--9----9--9--9--9-----------9----9----7----7--7--7--7--------------7----7--|
D|--9----9--9--9--9-----------9----9----7----7--7--7--7--------------7----7--|
A|--7----7--7--7--7-----------7----7----5----5--5--5--5--------------5----5--|
E|---------------------------------------------------------------------------|
    Na  na-na-na-na na na na-na na     Na   na-na-na-na  na na na-na na
 
e|---------------------------------------------------------------------------|
B|--9----9--9--9--9----------10----9----7----7--7--7--7--------------8----7--|
G|--9----9--9--9--9-----------9----9----7----7--7--7--7--------------7----7--|
D|--9----9--9--9--9-----------9----9----7----7--7--7--7--------------7----7--|
A|--7----7--7--7--7-----------7----7----5----5--5--5--5--------------5----5--|
E|---------------------------------------------------------------------------|
    Na  na-na-na-na na na na-na na     Na   na-na-na-na  na na na-na na
 
 
 
Verse 2 – Rhythm Guitar
 
e|---------------------------------------------------------------------------|
B|----(9)---------------------------------(7)--------------------------------|
G|---9-9-9---9---------------------------7-7-7---7---------------------------|
D|---9-9-9---9---------------------------7-7-7---7---------------------------|
A|---7-7-7---7---------------------------5-5-5---5---------------------------|
E|---------------------------------------------------------------------------|
 
    Finger tingle got that feelin      You just touched the Sistine ceiling
 
e|---------------------------------------------------------------------------|
B|----(9)---------------------------------(7)--------------------------------|
G|---9-9-9---9---------------------------7-7-7---7---------------------------|
D|---9-9-9---9---------------------------7-7-7---7---------------------------|
A|---7-7-7---7---------------------------5-5-5---5---------------------------|
E|---------------------------------------------------------------------------|
 
    Come alive and ah give me five       Just slap my hand and amplify, yeah!    
 
 
Chorus 2
 
Lead - Repeat 4x
 
e|-----|---------------------------------7-------7--------------7------------|
B|-7-7-|-8--7-----7--8--7-----7--8-----------10-----8---7-----------10-------|
G|-----|-------9-----------9--------9-----------------------9----------------|
D|-----|---------------------------------------------------------------------|
A|-----|---------------------------------------------------------------------|
E|-----|---------------------------------------------------------------------|
     Turn me on & turn me up & turn me loose  (I am alive & amplified)
 
Rhythm - Repeat 4x
 
e|---------------------------------------------------------------------------|
B|---------------------------------------------------------------------------|
G|--5--5---------------------------------9--9------------9--9----------------|
D|--5--5--------------7--7---------------9--9------------9--9----------------|
A|--3--3--------------7--7---------------7--7------------7--7----------------|
E|--------------------5--5---------------------------------------------------|
 
 
 
Post-Chorus
 
e|---------------------------------------------------------------------------|
B|--9----9--9--9--9----------10----9----7----7--7--7--7--------------8----7--|
G|--9----9--9--9--9-----------9----9----7----7--7--7--7--------------7----7--|
D|--9----9--9--9--9-----------9----9----7----7--7--7--7--------------7----7--|
A|--7----7--7--7--7-----------7----7----5----5--5--5--5--------------5----5--|
E|---------------------------------------------------------------------------|
    Na  na-na-na-na na na na-na na     Na   na-na-na-na  na na na-na na
 
e|---------------------------------------------------------------------------|
B|--9----9--9--9--9----------10----9----7----7--7--7--7--------------8----7--|
G|--9----9--9--9--9-----------9----9----7----7--7--7--7--------------7----7--|
D|--9----9--9--9--9-----------9----9----7----7--7--7--7--------------7----7--|
A|--7----7--7--7--7-----------7----7----5----5--5--5--5--------------5----5--|
E|---------------------------------------------------------------------------|
    Na  na-na-na-na na na na-na na     Na   na-na-na-na  na na na-na na
 
 
Solo Lead In - Lead Guitar
 
e|--7------------------------------------------------------------------------|
B|-----10--8-----10--8--------8----------------------------------------------|
G|------------9---------9--7-----9--7-----9--7-------------------------------|
D|-------------------------------------9--------9----7~-----~--~--~--~-------|
A|---------------------------------------------------7~-----~--~--~--~-------|
E|---------------------------------------------------------------------------|
 
 
Solo Lead - In the works
http://www.ultimate-guitar.com/tabs/m/mooney_suzuki/alive_and_amplified_tab.htm
 
Solo Rhythm - follows the rhythm of “na na na” singing
 
e|---------------------------------------------------------------------------|
B|--9----9--9--9--9-10-10--9--10-10--9---7----7--7--7--7--8--8--7---8--8--7--|
G|--9----9--9--9--9--9--9--9---9--9--9---7----7--7--7--7--7--7--7---7--7--7--|
D|--9----9--9--9--9--9--9--9---9--9--9---7----7--7--7--7--7--7--7---7--7--7--|
A|--7----7--7--7--7--7--7--7---7--7--7---5----5--5--5--5--5--5--5---5--5--5--|
E|---------------------------------------------------------------------------|
 
 
Chorus 3
 
Lead - Continuation of Solo, I will include soon. 
 
     Rhythm - repeat 4x     note: different from chorus 1 + 2
 
e|---------------------------------------------------------------------------|
B|---------------------------------------------------------------------------|
G|---5-------5---------------------------9--------9--------9--------9--------|
D|---5-------5--------7--------7---------9--------9--------9--------9--------|
A|---3-------3--------7--------7---------7--------7--------7--------7--------|
E|--------------------5--------5---------------------------------------------|
 
 
Outro 1  -  Let ring for a while with some feedback
 
e|--7------------------------------------------------------------------------|
B|-----10--8-----10--8--------8----------------------------------------------|
G|------------9---------9--7-----9--7-----9--7-------------------------------|
D|-------------------------------------9--------9----7~-----~--~--~--~-------|
A|---------------------------------------------------------------------------|
E|---------------------------------------------------------------------------|
 
Outro 2
 
e|---------------------------------------------------------------------------|
B|--9----9--9--9--9----------10----9----7----7--7--7--7--------------8----7--|
G|--9----9--9--9--9-----------9----9----7----7--7--7--7--------------7----7--|
D|--9----9--9--9--9-----------9----9----7----7--7--7--7--------------7----7--|
A|--7----7--7--7--7-----------7----7----5----5--5--5--5--------------5----5--|
E|---------------------------------------------------------------------------|
    Na  na-na-na-na na na na-na na     Na   na-na-na-na  na na na-na na
 
e|---------------------------------------------------------------------------|
B|--9----9--9--9--9----------10----9----7----7--7--7--7----------------------|
G|--9----9--9--9--9-----------9----9----7----7--7--7--7----------------------|
D|--9----9--9--9--9-----------9----9----7----7--7--7--7----------------------|
A|--7----7--7--7--7-----------7----7----5----5--5--5--5----------------------|
E|---------------------------------------------------------------------------|
    Na  na-na-na-na na na na-na na     Na   na-na-na-na  na na na-na na
 
 
| /  slide up
| \  slide down
| h  hammer-on
| p  pull-off
| ~  vibrato
| +  harmonic
| x  Mute note
===============================================================================


[ Tab from: http://www.guitartabs.cc/tabs/m/mooney_suzuki/alive_and_amplified_tab_ver_2.html ]
Comments