Mooney Suzuki - Alive And Amplified Chords & Tabs

 

Alive And Amplified Chords & Tabs

Mooney Suzuki Chords & Tabs

Version: 1 Type: Tab 0 ratings
1 star 2 stars 3 stars 4 stars 5 stars
comments

Alive And Amplified Tab

   
-------------------------------------------------------------------------------
			     Alive and Amplified - Mooney Suzuki
-------------------------------------------------------------------------------
Tabbed by: audiorapist	
Email: drew_313@hotmail.com

Tuning: E A D G B E


Intro/Pre Solo Lead
 
e|---------------------------------------------------------------------------|
B|--12--10---------10--------------------------------------------------------|
G|----------12--9------12--9------12--9---------9----------------------------|
D|----------------------------12---------12--9-----12--9---------------------|
A|--------------------------------------------------------12~--Let Ring------|
E|---------------------------------------------------------------------------|


Intro/Interlude/Solo Rhythm

e|---------------------------------------------------------------------------|
B|--9--9--9--9--10-10-9--10-10-9----7--7--7--7--8--8--7--8--8--7-------------|
G|--9--9--9--9--9--9--9--9--9--9----7--7--7--7--7--7--7--7--7--7-------------| x 2
D|--9--9--9--9--9--9--9--9--9--9----7--7--7--7--7--7--7--7--7--7-------------|
A|--7--7--7--7--7--7--7--7--7--7----5--5--5--5--5--5--5--5--5--5-------------|
E|---------------------------------------------------------------------------|


Verse Rhythm

e|---------------------------------------------------------------------------|
B|---------------------------------------------------------------------------|
G|--9--9--9--9----7--7--7--7-------------------------------------------------| x 2
D|--9--9--9--9----7--7--7--7-------------------------------------------------|
A|--7--7--7--7----5--5--5--5-------------------------------------------------|
E|---------------------------------------------------------------------------|


Chorus Lead

e|-----------------------------------7------7---------------7----------------|
B|--8--7-----7--8--7-----7--8--7--------10-----8----7-----------10-----------|
G|--------9-----------9-----------9---------------------9--------------------| x 4
D|---------------------------------------------------------------------------|
A|---------------------------------------------------------------------------|
E|---------------------------------------------------------------------------|
                                     I  am  Al-ive and Amp-lif-ied

Chorus Rhythm
[ Tab from: http://www.guitartabs.cc/tabs/m/mooney_suzuki/alive_and_amplified_tab.html ]
e|---------------------------------------------------------------------------|
B|---------------------------------------------------------------------------|
G|--5--5--5--5--------------9--9--9--9--9--9--9--9---------------------------| x 4
D|--5--5--5--5--7--7--7--7--9--9--9--9--9--9--9--9---------------------------|
A|--3--3--3--3--7--7--7--7--7--7--7--7--7--7--7--7---------------------------|
E|--------------5--5--5--5---------------------------------------------------|


Lead Solo Used with lots of flanger and wah

e|------------12-------------------------------------------------------------|
B|--15b (17)------x 13--15br (17)--12---------------------------------|
G|--------------------------------------------14--14--14br (15) --12--14--12-|
D|---------------------------------------------------------------------------|
A|---------------------------------------------------------------------------|
E|---------------------------------------------------------------------------|

e|---------------------------------------------------------------------------|
B|---------------------------------------------------------------------------|
G|------12------12--14br (16)--12--14--12----12b  (13)------12b  (13)--------|  
D|--14------14-------------------------------12b  (13)--14--12b  (13)--14----|
A|---------------------------------------------------------------------------|
E|---------------------------------------------------------------------------|

e|---------------------------------------------------------------------------|
B|---------------------------------------------------------------------------|
G|--12b  (13)------14b  Hold--14br  (15)--12--14--14br x5--14--12------12----|
D|--12b  (13)--14--------------------------------------------------14------14|
A|---------------------------------------------------------------------------|
E|---------------------------------------------------------------------------|

e|---------------------------------------------------------------------------|
B|---------------------------------------------------------------------------|
G|---------------------------------------------------------------------------|
D|--12--11br  (12)--9--------------9--11--12--9--9--9--9--9------------------|
A|---------------------12--11--12--------------------------------------------|
E|---------------------------------------------------------------------------|


| br bend and release
| B  bend
| /  slide up
| \  slide down
| h  hammer-on
| p  pull-off
| ~  vibrato
| +  harmonic
| x  Mute note
===============================================================================
Comments