Moody Blues - Nights In White Satin Chords & Tabs

 

Nights In White Satin Chords & Tabs

Moody Blues Chords & Tabs

Version: 6 Type: Tab 0 ratings
1 star 2 stars 3 stars 4 stars 5 stars
comments

Nights In White Satin Tab

   
By Frankyz84
This is my version of that beautiful song, by the Moody Blues.


                   NIGHTS IN WHITE SATIN
Moody Blues
Em                D       Em                     D
  Nights in white satin       never reaching the end
C              G          F                    Em
  Letters I've written        never meaning to send
Em           D            Em                    D
  Beauty I'd always missed    with these eyes before
C               G         F                  Em
  Just what the truth is      I can't say anymore
CHORUS
        A               C
Cause I love you, yes I love you
           Em           D      Em       D
Ohhh how I love you

Gazing at people, some hand in hand
Just what I'm going through they can't understand
Some try to tell me thoughts they cannot defend
Just what you want to be, you'll be in the end
CHORUS
 Solo:
|Em |D  |C  |B7  |Em |D  |C  |B7  |Em  |C   |Em  |C  |
[ Tab from: http://www.guitartabs.cc/tabs/m/moody_blues/nights_in_white_satin_tab_ver_6.html ]
|Am |B7 |Am |B7  |Em |D  |C  |Em  |


e|---|------2--3--2----------|-2-------------------------2--3--5--3-|
b|---|-5--5----------5--3--5-|---5--3-----3--5--4---5--5------------|
G|-4-|-----------------------|---------5----------4-----------------|
D|---|-----------------------|--------------------------------------|
A|---|-----------------------|--------------------------------------|
E|---|-----------------------|--------------------------------------|

e|-2--3--5--3--2--2--3--2--7-|-7--6--5--3---3--7--7--6--5-|-3---3--5--5--7--8-|
b|--------------5------------|------------5---------------|---5---------------|
G|---------------------------|----------------------------|-------------------|
D|---------------------------|----------------------------|-------------------|
A|---------------------------|----------------------------|-------------------|
E|---------------------------|----------------------------|-------------------|

e|-7--5--5--7--8--7--12--12--12--10--12-|
b|--------------------------------------|
G|--------------------------------------|
D|--------------------------------------|
A|--------------------------------------|
E|--------------------------------------|
Comments