Moody Blues - Nights In White Satin Chords & Tabs

 

Nights In White Satin Chords & Tabs

Moody Blues Chords & Tabs

Version: 4 Type: Tab 2 ratings
1 star 2 stars 3 stars 4 stars 5 stars
comments

Nights In White Satin Tab

   
#----------------------------------PLEASE NOTE---------------------------------#
#This file is the author's own work and represents their interpretation of the #
#song. You may only use this file for private study, scholarship, or research. #
#------------------------------------------------------------------------------##
                                   From: Dnscal

Listen to the song to get a good feel for the rhythm

strum upwards   = <
strum downwards = >

Intro (play twice)

 Em          D           Em          D          
 
Verse
[ Tab from: http://www.guitartabs.cc/tabs/m/moody_blues/nights_in_white_satin_tab_ver_4.html ]
    >     >   <        >  > <           <    >  >   >   <    >        <   >           <   >   <
    Em                 D                   Em                         D              C
-|--0-----0---0-----|--2--2-2-----2h3---0-|--0--0---0---0----0-----|--2---2----2h3--|-0---0---0----|
-|--0-----0---0-----|--3--3-3--3------3-0-|--0--0---0---0----0-----|--3---3--3-----0|-1---1---1----|
-|--0-----0---0-----|--2--2-2-----------0-|--0--0---0---0----0-----|--2---2---------|-0---0---0----|
-|--2-----2---2-----|--0--0-------------2-|--2--2---2---2----2-----|--0-------------|-2---2---2----|
-|--2-----2---2-----|--0--0-------------2-|--2--2---2---2----2-----|----------------|-3---3---3----|
-|--0-----0---0-----|-------------------0-|--0--0---0---0----0-----|----------------|-0---0---0----|
    Nights in white   satin                   Never  reaching the     end             letters i've

    >     >           >                   >  < > >
    G                 F                  Em
-|--3---- 3--------|--1----------------|--0--0-0-0------|
-|--0-----0--------|--1----------------|--0--0-0-0------|
-|--0-----0--------|--2----------------|--0--0-0-0------|
-|--0-----0--------|--3----------------|--2--2-2-2------|
-|--2-----2--------|-------------------|--2--2-2-2------|
-|--3-----3--------|-------------------|--0--0-0-0------|
    writen            Never meaning to    send

Same chord pattern for verse below.

  Em         D            Em                    D
  Beauty I'd always missed    with these eyes before
  C             G         F                  Em
  Just what the truth is      I can't say anymore


Chorus
        A               C
  Cause I love you, yes I love you
            Em           D      Em       D
  Ohhhh how I love you


Verse 

Gazing at people, some hand in hand 
Just what I'm going through they can't understand 
Some try to tell me thoughts they cannot defend 
Just what you want to be, you'll be in the end 

Chorus
Comments