Moody Blues - Nights In White Satin Chords & Tabs

 

Nights In White Satin Chords & Tabs

Moody Blues Chords & Tabs

Version: 1 Type: Tab 0 ratings
1 star 2 stars 3 stars 4 stars 5 stars
comments

Nights In White Satin Tab

Nights in white satin solo, Moody Blues? (at least it's what I play!!)
slightly spanish in feel. I will do the rest when I get around 
to it.

~ vibato
\slide down
/slide up


[ Tab from: http://www.guitartabs.cc/tabs/m/moody_blues/nights_in_white_satin_tab.html ]
         
E|------|-------------7h8p7-|----------7h8p7----|
B|------|-10----------------|10p8h10------------|
G|---9--|-------------------|-------------------|
D|------|-------------------|-------------------|
A|------|-------------------|-------------------|
E|------|-------------------|-------------------|
  
E|-------------------|-------------------|
B|-10-8--------8--10-|-9-----------------|
G|-------10~---------|----------9-----9~-|
D|-------------------|-------------------|
A|-------------------|-------------------|
E|-------------------|-------------------|
   
E|-----------7h8h10--|----8-7-8-10-------|
B|/10~---------------|-------------------|
G|-------------------|-------------------|
D|-------------------|-------------------|
A|-------------------|-------------------|
E|-------------------|-------------------|
    
E|-8-7--------7--8---|-7~----------------|
B|-------10~---------|-------------------|
G|-------------------|-------------------|
D|-------------------|-------------------|
A|-------------------|-------------------|
E|-------------------|-------------------|

Gotta go tis beer time!!

Tabbed by Steve  e-mail to solidleather@ozemail.com.au
Comments