Montrose - Rock The Nation Chords & Tabs

 

Rock The Nation Chords & Tabs

Montrose Chords & Tabs

Version: 3 Type: Tab

Rock The Nation Tab

First Riff
|-------------------------------------|
|-------------------------------------|
|-------------------------------------|
|-------5-7------7-9---9-7-9-7-9---9-7|
|---7-7-3-5--9-9-5-7---7-5-7-5-7---7-5|
|---5-5------7-7----------------------|
[ Tab from: http://www.guitartabs.cc/tabs/m/montrose/rock_the_nation_tab_ver_3.html ]
Second Riff
|-------------------------------------|
|-------------------------------------|
|-------------------------------------|
|--7-9--------------------------------|
|--5-7-7-5-5-7------------------------|
|------5-3-3-5------------------------|

There ya go, a great song, and I'm sure it's right

happy playng