Montrose - Rock The Nation Chords & Tabs

 

Rock The Nation Chords & Tabs

Montrose Chords & Tabs

Version: 1 Type: Tab 1 rating
1 star 2 stars 3 stars 4 stars 5 stars
comments

Rock The Nation Tab

Song: Rock the Nation
Group: Montrose
Album: Montrose
Tabbed by: Mike Rees 
[ Tab from: http://www.guitartabs.cc/tabs/m/montrose/rock_the_nation_tab.html ]
main riff
-----------------------------------------------------------
-----------------------------------------------------------
--------7--7-----4--4--9--9------9--7--9--7--9-9--7--9-----
--7--7--7--7-----4--4--9--9------9--7--9--7--9-9--7--9-----
--7--7--5--5-----2--2--7--7------7--5--7--5--7-7--5--7-----
--5--5----------------------------------------------------- 

riff 2
-----------------------------
-----------------------------
--9----7---------------------
--9----7----7----5----7------
--7----5----7----5----7------
------------5----3----5------
Comments