Monstrosity - Perpetual War Chords & Tabs

 

Perpetual War Chords & Tabs

Monstrosity Chords & Tabs

Version: 1 Type: Tab 0 ratings
1 star 2 stars 3 stars 4 stars 5 stars
comments

Perpetual War Tab

                       MONSTROSITY-PERPETUAL WAR
                       From the Album IN DARK PURITY
                       Copyright 1999 Mercury Records

                       Version 1.0 - June 1999


Transcribed by: Dan Rabago
email Dan at lostsoul69@hotmail.com, for questions or corrections

Visit Malignant Tablature Dominion at:
                http://www.angelfire.com/ak2/MalignantTabs/index.html

Check Out 's Web Page, With More Transcriptions On It:
               /

Check Out DEATH WARP, With More Transcriptions On It:
               http://tiger.towson.edu/~dalvis1


/     slide up
\     slide down
p     pull on
h     hammer on
~     vibrato
.     pm


Tuning:C sharp
    . .   . . ....    . .   . . ....    . .   . . ....    . .   . .
|-------------------------------------------------------------------------|
|-------------------------------------------------------------------------|
|-------------------------------------------------------------------------|
|-------------------------------------------------------------------4-4-5-|
|-3-2-2-3-2-2-2222--3-2-2-3-2-2-2222--3-2-2-3-2-2-2222--3-2-2-3-2-2-2-2-3-|
|-1-0-0-1-0-0-0000--1-0-0-1-0-0-0000--1-0-0-1-0-0-0000--1-0-0-1-0-0-------|

  ... . ... . ... . ... . ... ... ... . ... . ... . ... . ... ... ... ...
|-------------------------------------------------------------------------|
|-------------------------------------------------------------------------|
|-------------------------------------------------------------------------|
|-------------------------------------------------------------------------|
|-------------------------------------------------------------------------|
|-000-0-000-0-000-0-000-0-000-000-000-0-000-0-000-0-000-0-000-000-000-000-|
[ Tab from: http://www.guitartabs.cc/tabs/m/monstrosity/perpetual_war_tab.html ]
  ... . ... . ... . ... . ... ... ... . ... . ... . ... . ... . . . ... ... .
|-----------------------------------------------------------------------------|
|-----------------------------------------------------------------------------|
|-----------------------------------------------------------------------------|
|-----------------------------------------------------------------------------|
|-----------------------------------------------------------------------------|
|-770-0-770-0-770-0-770-0-880-550-770-0-770-0-770-0-770-0-880-10100-550-770-0-|

  . .   . .   . .         . .   . .   . .
|------------------------------------------------/-----------------|
|------------------------------------------------/-----------------|
|-----4-----3-----------------4-----3------^--h.-/-----------------|
|---2-----2-----2-2-3-2-0---2-----2-----2-2-3-2--/-----------------|
|-2-----2-----2-----------2-----2-----2----------/---------2p1-----|
|------------------------------------------------/-1h0-1h2-----3p2-|

    . . . . .   . . . . .   .   .    . . . . .   . . . . .
|----------------------------------------------------------------|
|----------------------------------------------------------------|
|----------------------------------------------------------------|
|-------------------------4---5----------------------------444-5-|
|-3-2-2-2-2-2-3-2-2-2-2-2-2-2-3-2--3-2-2-2-2-2-3-2-2-2-2-2-222-3-|
|-1-0-0-0-0-0-1-0-0-0-0-0---0---0--1-0-0-0-0-0-1-0-0-0-0-0-------|

    ...   ...   ...   ... . . . . . .    ...   ...   ...   ...
|--------------------------------------------------------------|
|--------------------------------------------------------------|
|--------------------------------------------------------------|
|-9-----9-----9-----9------------------9-----9-----9-----9-----|
|-7-----7-----7-----7-----------8-7-5--7-----7-----7-----7-----|
|---000---000---000---000-5-7-8----------000---000---000---000-|

  . . . . . . . . .     ...   ...   ...   ... . . . .  . . . . .
|-------------------/--------------------------------------------|
|-------------------/--------------------------------------------|
|-------------------/--------------------------------------------|
|-------------------/-9-----9-----9-----9------------------------|
|-------8-7-5-------/-7-----7-----7-----7-----5-7-8-10-8-7-5-7-8-|
|-5-7-8-------5-7-8-/---000---000---000---000--------------------|

Listen to  it to piece it together. Theres a couple little fills I didnt
bother to throw in, but you can figure them out from the other rhytms.
Comments