Monster Magnet - Unbroken Hotel Baby Chords & Tabs

 

Unbroken Hotel Baby Chords & Tabs

Monster Magnet Chords & Tabs

Version: 1 Type: Tab 0 ratings
1 star 2 stars 3 stars 4 stars 5 stars
comments

Unbroken Hotel Baby Tab

   
-------------------------------------------------------------------------------
			    Unbroken (Hotel Baby) - Monster Magnet
-------------------------------------------------------------------------------
Tabbed by:Strato-Streak
Email: georgebaker2@hotmail.com
Please e-mail comments or suggestions, Thank You.

just like to give a shout out to the chute crew, y'all know who you are!


Tuning: Standard E A D G B E

Riff 1a

e|---------------------------------------------------------------------------|
B|---------------------------------------------------------------------------|
G|---------------------------------------------------------------------------|
D|-------------4-4--------------6-6-6----------------------------------------|
A|---6-6-6-----2-2---0--4-4-----4-4-4-0--------------------------------------|
E|---4-4-4--0-----------2-2--0-----------------------------------------------|

Riff 1b

e|---------------------------------------------------------------------------|
B|---------------------------------------------------------------------------|
G|-----------------4-4-------------------------------------------------------|
D|-----------------2-2--0----------------------------------------------------|
A|---6-6-6--2-2-2----------4-4-4---------------------------------------------|
E|---4-4-4--0-0-0----------2-2-2---------------------------------------------|

Riff 2a

e|---------------------------------------------------------------------------|
B|---------------------------------------------------------------------------|
G|---------------------------------------------------------------------------|
D|--------4-4------------4-4------------4-4----------------------------------|
A|---6-6--2-2--6-6--6-6--2-2--6-6--6-6--2-2--6-6-----------------------------|
E|---4-4-------4-4--4-4-------4-4--4-4-------4-4-----------------------------|

Riff 2b

e|---------------------------------------------------------------------------|
B|---------------------------------------------------------------------------|
G|---------------------------------------------------------------------------|
D|---------------------------------------------------------------------------|
A|---6-6--2-2--6-6-----------------------------------------------------------|
E|---4-4--0-0--4-4-----------------------------------------------------------|

Riff 3a
[ Tab from: http://www.guitartabs.cc/tabs/m/monster_magnet/unbroken_hotel_baby_tab.html ]
e|---------------------------------------------------------------------------|
B|---------------------------------------------------------------------------|
G|---------------------------------------------------------------------------|
D|------------------4-4-4-4-4-4-4-4--6-6-6-6-6-6-6-6-------------------------|
A|-4-4-4-4-4-4-4-4--2-2-2-2-2-2-2-2--4-4-4-4-4-4-4-4-------------------------|
E|-2-2-2-2-2-2-2-2-----------------------------------------------------------|

Riff 4a

e|---------------------------------------------------------------------------|
B|---------------------------------------------------------------------------|
G|---------------------------------------------------------------------------|
D|----------------------4-4-4-4--6-------------------------------------------|
A|---6-6-6-6-\-4-4-4-4--2-2-2-2--4-------------------------------------------|
E|---4-4-4-4-\-2-2-2-2---------------1---------------------------------------|

                                     slide to 17 and back to 1
     
e|---------------------------------------------------------------------------|
B|---------------------------------------------------------------------------|
G|---------------------------------------------------------------------------|
D|----------------------4-4-4-4--6-------------------------------------------|
A|---6-6-6-6-\-4-4-4-4--2-2-2-2--4-------------------------------------------|
E|---4-4-4-4-\-2-2-2-2-------------------------------------------------------|

                                 Let ring

e|---------------------------------------------------------------------------|
B|---------------------------------------------------------------------------|
G|---------------------------------------------------------------------------|
D|---------------------------------------------------------------------------|
A|---------------------------------------------------------------------------|
E|---------------------------------------------------------------------------|

| \  slide down

===============================================================================
How it goes!

Riff 1a X 3  - intro
Riff 1b X 1

Riff 2a X 3
Riff 2b X 1  - verse
Riff 2a X 3
Riff 2b X 1

Riff 3a X 1  - bridge

Riff 1a X 3  - chorous
Riff 1b X 1

Riff 2a X 3
Riff 2b X 1  - verse
Riff 2a X 3
Riff 2b X 1

Riff 3a X 1  - bridge

Riff 1a X 3  
Riff 1b X 1
Riff 1a X 3 - chorous
Riff 1b X 1

Riff 4a X 1 

Riff 1a X 3
Riff 1b X 1
Riff 1a X 3  - chorous
Riff 1b X 1
Riff 1a X 3 
Riff 1b X 1
Comments