Monster Magnet - See You In Hell Chords & Tabs

 

See You In Hell Chords & Tabs

Monster Magnet Chords & Tabs

Version: 1 Type: Bass Tab 0 ratings
1 star 2 stars 3 stars 4 stars 5 stars
comments

See You In Hell Bass Tab

Artist: Monster Magnet
Song: See You in Hell
Album: Powertrip
Bassist: Joe Calandra
Tabbed by: LedZeplica


Here's the intro/verse riff..
G|---------------------------
D|---------------------------
A|-6-5-4-------/6--6---------
E|------6--6-6-------7--7-7--


This is the first chorus..
G|-6---6-4-----8---8-6-----4--4-6-4-6-4----
D|---------6-4---------8-6--------------6--
A|-----------------------------------------
E|-----------------------------------------


Then play the verse riff again..


Then this is the second chorus..
G|-6---6-4-----8---8-6-----4--4-6-4-6-4-----------------
D|---------6-4---------8-6--------------6--6-6-6-4------
A|-------------------------------------------------6-4--
E|------------------------------------------------------
[ Tab from: http://www.guitartabs.cc/tabs/m/monster_magnet/see_you_in_hell_btab.html ]
G|----6-4---------8-6-----4--4-6-4-6-4-----------------
D|--------6-4---------8-6--------------6--6-6-6-4------
A|-4----------6-----------------------------------6-4--
E|-----------------------------------------------------


Then go into the verse riff..
Then pause for the bridge thingy (it sounds like there
                                   is bass in this part,
                                    but its the keyboard)..
Then go back into the verse riff..

Then the last chorus goes like this..
G|-6---6-4-----8---8-6-----4--4-6-4-6-4-----------------
D|---------6-4---------8-6--------------6--6-6-6-4------
A|-------------------------------------------------6-4--
E|------------------------------------------------------

G|----6-4---------8-6------
D|--------6-4---------8-6--
A|-4----------6------------
E|-------------------------

G|-4--4-6-4-6-4---------------------------------
D|--------------6--6-6-6-6-6-6-6-6-6-6-6-4------
A|-----------------------------------------6-4--
E|----------------------------------------------

Then go back into the verse riff and the song ends.

Later.
ledzeplica@aol.com

Comments