Monster Magnet - Powertrip Chords & Tabs

 

Powertrip Chords & Tabs

Monster Magnet Chords & Tabs

Version: 2 Type: Bass Tab 0 ratings
1 star 2 stars 3 stars 4 stars 5 stars
comments

Powertrip Bass Tab

Artist --- Monster Magnet
Song --- Powertrip
Album --- Powertrip
Bassist --- Joe Calandra
Tabbed by --- LedZeplica

I tabbed this out for a 5-string, but it is actually played with a half-step 
drop tuning. The detuning isn't necessary though... even if you don't have a 
5-string, just play the low D sharp in the bridge an octave higher.

This is the verse riff...
G|---------------------------------
D|---------------------------------
A|---6--6-4---6--6-4---6--4--
E|---------------------------------
B|---------------------------------

The change during the verse...
G|---------------------------------------------
D|---------------------------------------------
A|----2---2---2------4---4--4--4-4-------
E|----------------2----------------------4-4-
B|---------------------------------------------

The bridge...
G|-------------------------------------------
D|-------------------------6----6--4-------
A|--2---2---4-4---------------------6--4-
E|-----------------4---4----4--------------
B|-------------------------------------------

G|----------------------------------------
D|----------------------------------------
A|--2---2---4-4------------------------
E|----------------------------------------
B|-----------------4--4---4--4--4-4--

G|-------------------------------------------
D|-------------------------6----6--4-------
A|--2---2---4-4---------------------6--4-
E|-----------------4---4----4--------------
B|-------------------------------------------
[ Tab from: http://www.guitartabs.cc/tabs/m/monster_magnet/powertrip_btab_ver_2.html ]
G|-----------------------------------------
D|-----------------------------------------
A|--2---2--------4-4--------------------
E|-----------------------------------------
B|-----------------------------------------

Chorus...
G|---------------------------------
D|---------------------------------
A|---6--6-4---6--6-4---6--4--
E|---------------------------------
B|---------------------------------

G|---------------------------------
D|---------------------------------
A|---4--4----4--4----4---------
E|--------4--------4----4--------
B|---------------------------------

G|---------------------------------
D|---------------------------------
A|---2--2----2--2----2---------
E|--------2--------2----2--------
B|---------------------------------

G|---------------------------------
D|---------------------------------
A|---6--6-4---6--6-4---6--4--
E|---------------------------------
B|---------------------------------

During guitar solo... (just fit as many of these G sharps in as you can)
G|----------------------------------------------
D|--6-6-6-6-6-6-6-6-6-6-6-6-6-6-6-6-
A|----------------------------------------------
E|----------------------------------------------
B|----------------------------------------------

G|---------------------------------
D|---------------------------------
A|---6--6-4---6--6-4---6--4--
E|---------------------------------
B|---------------------------------


That's it... You should be able to figure out the order of the parts no 
problem.

Later.
Comments