Monster Magnet - Melt Chords & Tabs

 

Melt Chords & Tabs

Monster Magnet Chords & Tabs

Version: 1 Type: Tab 0 ratings
1 star 2 stars 3 stars 4 stars 5 stars
comments

Melt Tab

   
   Artist: Monster Magnet
    Title: Melt	
    Album: God says no
Tabbed by: Marko
   E-Mail: Metalmarko@addcom.de

Key:
b  = Bend
r  = Release bend
h  = Hammer
p  = Pull off
/  = Slide up
\  = Slide down
pm = Palm mute

Tune your guitar down 1/2 a step.

Intro:

eb|-----------------------------------------------------------------------|
Bb|-----------------------------------------3/5\3-------------------------|
Gb|-----------------------------------------3/5\3---3---------------------|
Db|-------5-5--3h5-3---3------------5-5-3h5-------5-----------------------|
Ab|------------------5---5--3---------------------------------------------|
Eb|--3-3------------------------3-3---------------------------------------|

eb|-----------------------------------------------------------------------|
Bb|--------------3-5br5---------------------------------------------------|
Gb|--------------3-5br5-3h5p3---------------3---3h5p3---------------------|
Db|------5-5-3h5--------------------5-5-3h5---5-------5-3-----------------|
Ab|-----------------------------------------------------------------------|
Eb|--3-3------------------------3-3---------------------------------------|

Pre-Chorus:

eb|-----------------------------------------------------------------------|
Bb|-----------------------------------------------------------------------|
Gb|-----------------------------------------------------------------------|
Db|--5-5-3/5-5-11-11-11-10-10-10------------------------------------------| play this 4x
Ab|--5-5-3/5-5-11-11-11-10-10-10------------------------------------------|
Eb|--3-3-1/3-3--9--9--9--8--8--8------------------------------------------|

Verse:			        

eb|-----------------------------------------------------------------------|              
Bb|-----------------------------------------------------------------------|
Gb|-----------------------------------------------------------------------|
Db|--5--5--5-5-3-3-3/5-8-8-8-8--------------------------------------------| play this 8x
Ab|--5--5--5-5-3-3-3/5-8-8-8-8--------------------------------------------|
Eb|--3--3--3-3-1-1-1/3-6-6-6-6--------------------------------------------|

but every 4x you play this:

eb|-----------------------------------------------------------------------|
Bb|-----------------------------------------------------------------------|
Gb|-----------------------------------------------------------------------|
Db|--5--5--5-5-3-3-3/5-8-8--------8---------------------------------------| 
Ab|--5--5--5-5-3-3-3/5-8-8--/8h10---10------------------------------------|
Eb|--3--3--3-3-1-1-1/3-6-6------------------------------------------------|

Verse 2: 
[ Tab from: http://www.guitartabs.cc/tabs/m/monster_magnet/melt_tab.html ]
eb|-----------------------------------------------------------------------|              
Bb|-----------------------------------------------------------------------|
Gb|-----------------------------------------------------------------------|
Db|--5--5--5-5-3-3-3/5-8-8-8-8-10-10-10-10--------------------------------| 
Ab|--5--5--5-5-3-3-3/5-8-8-8-8-10-10-10-10--------------------------------|
Eb|--3--3--3-3-1-1-1/3-6-6-6-6--8--8--8--8--------------------------------|

Bridge 1:

eb|-----------------------------------------------------------------------|
Bb|-----------------------------------------------------------------------|
Gb|-----------------------------------------------------------------------|
Db|--8-8-8-8-8-8-5-5-5-5-5------------------------------------------------|
Ab|--8-8-8-8-8-8-5-5-5-5-5------------------------------------------------|
Eb|--6-6-6-6-6-6-3-3-3-3-3------------------------------------------------|

Bridge 2:

eb|-----------------------------------------------------------------------|
Bb|-----------------------------------------------------------------------|
Gb|-----------------------------------------------------------------------|
Db|--8-8-8-8-8-8-10-10-10--10/11\10-5-------------------------------------|
Ab|--8-8-8-8-8-8-10-10-10--10/11\10-5-------------------------------------|
Eb|--6-6-6-6-6-6--8--8--8---8/-9\-8-3-------------------------------------|

Pre-Chorus:

eb|-----------------------------------------------------------------------|
Bb|-----------------------------------------------------------------------|
Gb|-----------------------------------------------------------------------|
Db|--5-5-3h5-11-11-11-10-10-----------------------------------------------|
Ab|--5-5-3h5-11-11-11-10-10-----------------------------------------------|
Eb|-----------------------------------------------------------------------|

Chorus:
	        
eb|-----------------------------------------------------------------------|              
Bb|-----------------------------------------------------------------------|
Gb|-----------------------------------------------------------------------|
Db|--5--5--5-5-3-3-3/5-8-8-8-8--------------------------------------------| 
Ab|--5--5--5-5-3-3-3/5-8-8-8-8--------------------------------------------|
Eb|--3--3--3-3-1-1-1/3-6-6-6-6--------------------------------------------|

Rythm over Solo:

eb|-----------------------------------------------------------------------|
Bb|-----------------------------------------------------------------------|
Gb|-----------------------------------------------------------------------|
Db|--5-5-3/5-5-11-11-11-10-10-10------------------------------------------|
Ab|--5-5-3/5-5-11-11-11-10-10-10------------------------------------------|
Eb|--3-3-1/3-3--9--9--9--8--8--8------------------------------------------|

Solo: Improvisation

eb|-3-6-8-|
Bb|-3-6-8-|
Gb|-3-5-8-|
Db|-3-5-8-|
Ab|-3-5-8-|
eb|-3-6-8-|

Comments