Monster Magnet - Look To Your Orb For The Warning Chords & Tabs

 

Look To Your Orb For The Warning Chords & Tabs

Monster Magnet Chords & Tabs

Version: 1 Type: Tab 0 ratings
1 star 2 stars 3 stars 4 stars 5 stars
comments

Look To Your Orb For The Warning Tab

Monster Magnet- Look to your orb for the warning        
Tabbed by Austin Gregory
 Tuning: 1/2 step down
INTRO: (clean w/slight chorus)

e|-----------------------------------------------------------------------------------------|
B|-----------------------------------------------------------------------------------------|
G|--7---7------7-6---6\4---4------4\2-2/4---4/7---7------7---6/7-6/7-6\4---4------4\2-2/4-|
D|--7---7------7-6---6\4---4------4\2-2/4---4/7---7------7---6/7-6/7-6\4---4------4\2-2/4-|
A|--5---5------5-4---4\2---2------2\0-0/2---2/5---5------5---4/5-4/5-4\2---2------2\0-0/2-|
E|----0----0-0-----0-----0----0-0---------0-----0----0-0---0-------------0----0-0---------|

 

e|---------------------------------------------------------------------------------------|
B|---------------------------------------------------------------------------------------|
G|---4/7---7------7-7\6---6/9---9------9/10-10\9-9\7---7------7-6/7-6/7-6\4---4------4\2-|
D|---4/7---7------7-7\6---6/9---9------9/10-10\9-9\7---7------7-6/7-6/7-6\4---4------4\2-|
A|---2/5---5------5-5\4---4/7---7------7/-8--8\7-7\5---5------5-4/5-4/5-4\2---2------2\0-|
E|-0-----0----0-0-------0-----0----0-0-------------0-0----0-0---------------0----0-0-----|

 

e|--------|
B|--------|
G|-2/4-4--|
D|-2/4-4--|
A|-0/2-2--|
E|--------|

 

VERSE: (heavy distortion) *this is the cool main part
[ Tab from: http://www.guitartabs.cc/tabs/m/monster_magnet/look_to_your_orb_for_the_warning_tab.html ]
e|---------------------------|
B|---------------------------|
G|-------------------------|
D|-------------------------|
A|---2--2--2/4-4-4/5-5-5\4---|
E|---2--2--2/4-4-4/5-5-5\4---|

 

CHORUS = intro

 

BRIDGE: (heavy distortion)

e|---v-------v--------------|
B|--------------------------|
G|---------------x---------|
D|---7/9-9-7/9-9-x---------|
A|---5/7-7-5/7-9-x-5-7-5----|
E|-----------------3-5-3----|

 

OUTRO:

 

e|------------------------------|
B|------------------------------|
G|-----------------------------|
D|---7/9-9-7/9-7-11--7--9-9-9--|
A|---5/7-7-5/7-5--9--5--7-7-7---|
E|------------------------------|

 

e|--------------------------------------|
B|--------------------------------------|
G|--------------------------------------|
D|---7/9-9-7/9-9-9-/12-12-12-12-12-12--|
A|---5/7-7-5/7-7-7-/10-10-10-10-10-10--|
E|--------------------------------------|

 

e|-----------------------------------|
B|-----------------------------------|
G|----------------------------------|
D|---7/9-9-9-9-9-9-9--7--5-5-5-5-5--|
A|---5/7-7-7-7-7-7-7--5--3-3-3-3-3---|
E|-----------------------------------|

 

e|--------------------------------|
B|--------------------------------|
G|-------------------------------|
D|---9-9-9-9-9-9--9-9--9--9-9-9--|
A|---7-7-7-7-7-7--7-7--7--7-7-7---|
E|--------------------------------|

 

 

Sorry, no solo but if any one has it and knows its right

Email me at negitivecreep89@guitar.com or at voicesinyourhead2001@yahoo.com 

 

"Skin the sun, fall asleep, wish away, the soul is cheap, 
lesson learned, wish me luck, sooth the burn wake me up."                     
 - Kurt D. Cobain (from dumb off the IN UTERO album)

                   (1967-1994) R.I.P
Comments