Monks - Skylab Chords & Tabs

 

Skylab Chords & Tabs

Monks Chords & Tabs

Version: 1 Type: Tab 0 ratings
1 star 2 stars 3 stars 4 stars 5 stars
comments

Skylab Tab

   
Artist: the Monks
Song: Skylab (Theme From the Monks)
Album: Bad Habits

Main Riff:

   C               G               C               G
1|---------------|---------------|---------------|---------------|
2|---------------|---------------|---------------|---------------|
3|---------------|---------------|---------------|---------------|
4|---------------|---------------|---------------|---------------|
5|-1h3-3-3-3-3-1-|-------------1-|-1h3-3-3-3-3-1-|-------------1-|
6|---------------|-1h3-3-3-3-3---|---------------|-1h3-3-3-3-3---|

Very simple. ;^) The chords for the rhythm guitar in the second part are: C, A#, and G.
The lead guitar plays something like this:
[ Tab from: http://www.guitartabs.cc/tabs/m/monks/skylab_tab.html ]
   C                 C       A#      G
1|-----------------|-------|-------|-------||
2|-----------------|-------|-3-----|-0-----||
3|-999-777-555-000-|-------|-3-----|-0-----||
4|-----------------|-------|-------|-------||
5|-----------------|-------|-------|-------||
6|-----------------|-------|-------|-------||
                             ^       ^
                             With tremolo.

This is played twice, but it sounds like only the third string is played the second time.
Again, this song is very simple, but it's such a gem!  With this and the recording,
it should be very easy to play.  :^)

~Adam Gaucher
AdamGaucher@halfmadpoet.com
http://members.aol.com/jasterdan/
Comments