Monkey Syd - Love Rocker Chords & Tabs

 

Love Rocker Chords & Tabs

Monkey Syd Chords & Tabs

Version: 1 Type: Tab 0 ratings
1 star 2 stars 3 stars 4 stars 5 stars
comments

Love Rocker Tab

   


Artist: Syd Monkey
Song: Love Rocker



Intro
----------------------------------------------------------------------
----------------------------------------------------------------------
----------------------------------------------------------------------
----------------------------------------------------------------------
-----3----2--3------3-------2--3-------3-----2--3---------------------
--2-----2--------2------2----------2------2--------2------------------


chorus- C  E  C  D-C


I always play by my own rules, I’m making moves
A loaded gun, ready for rocking the night steady
I need to be with my baby but her daddy disapproves
You pull the trigger, and you’d better get ready…for

Love Rocker
I’m a tough looking rocker but with a gentle side for my baby
Love Rocker
I play six strings and rock out on Saturday nights, they go crazy
Love Rocker
It’s a high steaks game lovin’ you but I’ll bet the house every time
Love Rocker
If I wasn’t lovin’ you I should be in jail because of my crime

[ Tab from: http://www.guitartabs.cc/tabs/m/monkey_syd/love_rocker_tab.html ]
main guitar riff
----------------------------------------------------------------------
---4---4---4--4--4---4-4--4--4--4---4--4---4---4-4-4--4---------------
---0---4---0--5--4---0-4--0--5--4---0--4---0---5-0-4--0---------------
----------------------------------------------------------------------
----------------------------------------------------------------------
----------------------------------------------------------------------


You’re daddy girl and he’s always buying you new Ford’s
He thinks I’m a loser and I rock at all costs
Things will change when I sign a three record deal with Columbia records
Maybe he’s jealous of my long hair because he still has a PIM SIB FOS

Love Rocker
I’ll only do one encore tonight so I can get to you early
Love Rocker
When I feather my hair it makes it look burly
Love Rocker
When I see you baby my heart gets a tingle
Love Rocker
I just went to Coconut records and bought the new Trixter single


His extra riffs                                              harmonic   
-------------------------------------------------------------/--------
---3---3---3--3--3---3-3--3--3--3---3--3---3---3-3-3--3------/--------
---0---4---0--5--4---0-4--0--5--4---0--4---0---5-0-4--0------/--9-----
-------------------------------------------------------------/--9-----
-------------------------------------------------------------/--------
-------------------------------------------------------------/--------



Enjoy


Comments