Monkey Spanks - More Soup Please Chords & Tabs

 

More Soup Please Chords & Tabs

Monkey Spanks Chords & Tabs

Version: 1 Type: Tab 0 ratings
1 star 2 stars 3 stars 4 stars 5 stars
comments

More Soup Please Tab

Yo dudes this song is the coolest

intro
1----4-5-5-6-7-8-
2----2-3-4-4-3-6-
3----2-3-4-4-3-6-
4----2-3-4-4-3-6-
5-22-0-0-4-4-0-0-
6-22-0-0-4-4-0-0-


verse clean (palmuted)
1------------------------
2------------------------
3-------------------------
4-----4-4-4-4-5-5-5-5-2-2-2-2
5-3-3-4-4-4-4-5-5-5-5-2-2-2-2   repeat 4x
6-1-1-2-2-2-2-3-3-3-3-0-0-0-0

[ Tab from: http://www.guitartabs.cc/tabs/m/monkey_spanks/more_soup_please_tab.html ]
chorus
1----------------------------------
2----------------------------------
3----------------------------------
4--2-3-4-5-6-7-8-9-10-11-12-13-----
5--0-1-2-3-4-5-6-7-8--9--10-11
6----0---0---0---0----0------0


yo yo yo dudes like jim tru we out
Ryan
solo
1---9-10-----------5-7-9-12---------
2--------6-12^---------------------
3---------------------------4-9-15-
4---------------19-----------------


ending
1
2
3
4
5
6--0


Comments