Monkees - Pleasent Vally Sunday Chords & Tabs

 

Pleasent Vally Sunday Chords & Tabs

Monkees Chords & Tabs

Version: 1 Type: Bass Tab 0 ratings
1 star 2 stars 3 stars 4 stars 5 stars
comments

Pleasent Vally Sunday Bass Tab

   
Pleseant Valley Sunday
by the Monkees

i know my tab isn't 100% correct, but it's better than the other one at least. also,
leave comments or something if you like it or rate it so i can see what people think
of it.

tuning: standard (E A D G)

4/4 time

  intro: x1
g|---------------|---------------|---------------|---------------|
d|---------------|---------------|---------------|---------------|
a|---------------|---------------|---------------|---------------|
e|---------------|---------------|5-------------3|---------------|
  1 - 2 - 3 - 4 - 1 - 2 - 3 - 4 - 1 - 2 - 3 - 4 - 1 - 2 - 3 - 4 - 

                                   verse: x6
g|---------------|---------------|---------------|---------------|
d|---------------|---------------|---------------|---------------|
a|---------------|---------------|0-----0---0-0-0|0-----0---0-0-0|
e|5-------------3|---------------|---------------|---------------|
  1 - 2 - 3 - 4 - 1 - 2 - 3 - 4 - 1 - 2 - 3 - 4 - 1 - 2 - 3 - 4 - 
[ Tab from: http://www.guitartabs.cc/tabs/m/monkees/pleasent_vally_sunday_btab.html ]
 ____________________________chorus_____________________________________
|
 chorus (1): x3                   chorus (2): x1
g|---------------|---------------|---------------|---------------|
d|---------------|---------------|---------------|---------------|
a|--------------3|--3-3---3-3-3--|---------------|---------------|
e|3---3---3-3-3--|---------------|3---3---3-3-3--|3---3---3-3-3--|
  1 - 2 - 3 - 4 - 1 - 2 - 3 - 4 - 1 - 2 - 3 - 4 - 1 - 2 - 3 - 4 - 

____________________________chorus_____________________________________

 chorus (3): x1                   chorus (4): x1
g|---------------|---------------|---------------|---------------|
d|--------------3|--3-3---3-3-3--|0--------------|---------------|
a|3---3---3-3-3--|---------------|--------0------|------------4--|
e|---------------|---------------|---------------|0--------------|
  1 - 2 - 3 - 4 - 1 - 2 - 3 - 4 - 1 - 2 - 3 - 4 - 1 - 2 - 3 - 4 - 


____________________________chorus___________________________________
                                                                     |
g|---------------|---------------|---------------|---------------|
d|---------------|---------------|---------------|---------------|
a|5-------4------|2---0----------|7--------------|---------------|
e|---------------|---------------|---------------|---------------|
  1 - 2 - 3 - 4 - 1 - 2 - 3 - 4 - 1 - 2 - 3 - 4 - 1 - 2 - 3 - 4 - 


  bridge: x8                      bridge end: x1
g|---------------|---------------|---------------|---------------|
d|---------------|---------------|---------------|---------------|
a|--------7------|---------------|---------------|---------------|
e|0---0-0-----0-0|0---0-0-5---5-5|7--------------|---------------|
  1 - 2 - 3 - 4 - 1 - 2 - 3 - 4 - 1 - 2 - 3 - 4 - 1 - 2 - 3 - 4 - 



intro
verse
chorus
verse
chorus
bridge
intro
verse
chorus
bridge
Comments